PrimaNota.ru - самый крупный в мире бесплатный архив песенных текстов, аккордов, табулатур и нот


Cocofunka - Funky Calavera - таба, видео

Регистрация Запомнить меня
Войти через:  Facebook Google Twitter Vk Yandex Mail.ru

Cocofunka - Funky Calavera - таба, видео

Печатать
Просмотров: 90
   Cocofunka

CANCION: Funky Calavera
ALBUM: Elevarse 
AÑO: 2010

[Actualizada 11/06/13] 

Intro

|---------------------------------------------------|
|-----------------------------7----5----------------|
|-------------------------------6-----6--4v--2------|
|--------7------7------7-4--------------------------|
|-4----4------4-----4-------------------------------|
|---------------------------------------------------|

|---------------------------------------------------|
|-------------7----55-------------------------------|
|---------------6-----6-4--2-4----------------------|
|--------7-4--------------4-------------------------|
|-----4---------------------------------------------|
|---------------------------------------------------|

|---------------------------------------------------|
|---------7---5-------------------------------------|
|-----------6---6--4v--2----------------------------|
|---7-4---------------------------------------------|
|-4-------------------------------------------------|
|---------------------------------------------------|

|---------------------------------------------------|
|---------------------------------------------------|
|---------------------------------------------------|
|---7-4----7/9/7------------------------------------|
|-4---------------7/9-------------------------------|
|---------------------------------------------------|


Aquí por si quieren hacer la voz del coro con la guitarra:

   Funky Calavera woo oh oh
|---------------------------------------------------| 
|----2--------------2h5-2---------------------------|
|--4---4-2-2h4-2----------4-------------------------| Esta parte 2 veces.
|----------------4----------------------------------|
|---------------------------------------------------|
|---------------------------------------------------|

  ¡Funky Calaveraaa aaa a a!
|---------------------------------------------------|
|--2-55-2--5/7-5--7-2-----------2-------------------|
|----------------------4v-----4---4-2-2h4-----------|
|-----------------------------------------4---------|
|---------------------------------------------------|
|---------------------------------------------------|


Coro

Funky Calavera...
Ahi tienen que sacar el ritmo de F#m 

 F#m                   Bm  C#m
|-2--------------------2-2--4-----------------------|  
|-2--------------------3-3--5-----------------------|
|-2--------------------4-4--6-----------------------|    x2
|-4--------------------4-4--6-----------------------|
|-4--------------------2-2--4-----------------------|
|-2-------------------------------------------------|

 ¡Funky Calaveraaa aaa a a!

   D    C#m
|--5-----4------------------------------------------|
|--7-----5------------------------------------------|
|--7-----6------------------------------------------|
|--7-----6------------------------------------------|
|--5-----4------------------------------------------|
|---------------------------------------------------|
 
 F#m                   Bm  C#m
|-2--------------------2-2--4--------------------2--|
|-2--------------------3-3--5--------------------2--|
|-2--------------------4-4--6--------------------2--|
|-4--------------------4-4--6--------------------4--|
|-4--------------------2-2--4--------------------4--|
|-2----------------------------------------------2--|


Esta es otra parte que sale (1:49)

siempre se a olvidado en la  palabra yooo o o o 

 F#m Mi  D C#m Bm
|-9---7--5--4--2------------------------------------|
|-10--9--7--5--3------------------------------------|
|-11--9--7--6--4------------------------------------|
|-11--9--7--6--4------------------------------------|
|-9---7--5--4--2------------------------------------|
|---------------------------------------------------|

Coro

Funky Calavera...

 F#m                   Bm  C#m
|-2--------------------2-2--4-----------------------|
|-2--------------------3-3--5-----------------------|
|-2--------------------4-4--6-----------------------|  x2
|-4--------------------4-4--6-----------------------|
|-4--------------------2-2--4-----------------------|
|-2-------------------------------------------------|

 ¡Funky Calaveraaa aaa a a!

   D    C#m
|--5-----4------------------------------------------|
|--7-----5------------------------------------------|
|--7-----6------------------------------------------|
|--7-----6------------------------------------------|
|--5-----4------------------------------------------|
|---------------------------------------------------|
 
 F#m                   Bm  C#m
|-2--------------------2-2--4----------------2------|
|-2--------------------3-3--5----------------2------|
|-2--------------------4-4--6----------------2------|
|-4--------------------4-4--6----------------4------|
|-4--------------------2-2--4----------------4------|
|-2------------------------------------------2------|

  2:15
|---------------------------------------------------|
|---------7---5-------------------------------------|
|-----------6---6--4v--2----------------------------|
|---7-4---------------------------------------------|
|-4-------------------------------------------------|
|---------------------------------------------------|

|---------------------------------------------------|
|---------------------------------------------------|
|---------------------------------------------------|
|---7-4----7/9/7------------------------------------|
|-4---------------7/9-------------------------------|
|---------------------------------------------------|

Coro

Funky Calavera...

 F#m                   Bm  C#m
|-2--------------------2-2--4-----------------------|
|-2--------------------3-3--5-----------------------|
|-2--------------------4-4--6-----------------------| x2
|-4--------------------4-4--6-----------------------|
|-4--------------------2-2--4-----------------------|
|-2-------------------------------------------------|

 ¡Funky Calaveraaa aaa a a!

   D    C#m
|--5-----4------------------------------------------|
|--7-----5------------------------------------------|
|--7-----6------------------------------------------|
|--7-----6------------------------------------------|
|--5-----4------------------------------------------|
|---------------------------------------------------|
 
 F#m                   Bm  C#m
|-2--------------------2-2--4-------------------2---|
|-2--------------------3-3--5-------------------2---|
|-2--------------------4-4--6-------------------2---|
|-4--------------------4-4--6-------------------4---|
|-4--------------------2-2--4-------------------4---|
|-2---------------------------------------------2---|

Esto va despues del ultimo coro
   D    E   D   E          F#m
|--5----7---5---7-----------2-----------------------|
|--7----9---7---9-----------2-----------------------|
|--7----9---7---9-----------2---------------7--4----|
|--7----9---7---9-----------4-------------4---------|
|--5----7---5---7-----------4-----------------------|
|---------------------------2-----------------------|


cocofunka.bandcamp.com
Добавлено: 27.09.2013
Другие материалы по этой песне:
  • Аккорды и текст

Страница создана 08.07.2013
http://primanota.ru/cocofunka/funky-calavera-chords.htm
Привет, Гость.
Предлагаем пройти революционный курс по гитаре.
Подарок от PrimaNota.Ru, забирай!