PrimaNota.ru - самый крупный в мире бесплатный архив песенных текстов, аккордов, табулатур и нот


Cocofunka - Elevarse - таба, видео

Регистрация Запомнить меня
Войти через:  Facebook Google Twitter Vk Yandex Mail.ru

Cocofunka - Elevarse - таба, видео

Печатать
Просмотров: 118
Cocofunka
CANCIÓN: Elevarse
AUTOR: Cocofunka
ALBUM: Elevarse (2010)

[Actualizado 23/05/13]

Intro va con wah wah
|----------------------------------------------------------|
|----------------------------------------------------------|
|---------7--5----------9--7----------7--5-----------7v----|
|-5-7-7-5------5-7-7-5-------5-7-7-5--------5-7-7-5--------|
|----------------------------------------------------------|
|----------------------------------------------------------|

Verso
|---------------------------------------------------|
|---------------------------------------------------|
|---------------------------------------------------|
|-5-7-7----5-7-7-5----------------------------------|
|-------------------7-5/3/5-------------------------|
|---------------------------------------------------|

*Hay como unas variaciones que son así se pueden apreciar a los 0:13*
   
   1º                               2º
|---------------|------------10---8-----------------|
|---------------|-----8--10-------------------------|
|-------7--5----|-----------------------------------|
|--5-7----------|-----------------------------------|
|---------------|-----------------------------------|
|---------------|-----------------------------------|


Coro

|---------------------------------------------------|
|--13-10---13-12----13-10--13-10/12-10/7------------|
|---------------------------------------------------|
|---------------------------------------------------|
|---------------------------------------------------|
|---------------------------------------------------|


Los acordes son los que hace el teclado de fondo
  Am   Mim
|--5---7--------------------------------------------|
|--5---8--------------------------------------------|
|--5---9--------------------------------------------|
|--7---9--------------------------------------------|
|--7---7--------------------------------------------|
|--5------------------------------------------------|



Despues del coro sigue algo asi:

haciendo slide hacia los primeros trastes
|---------------------------------------------------|
|---------------------------------------------------|
|---------------------------------------------------|
|--7/-------7/--------------------------------------|
|---------------------------------------------------|
|---------------------------------------------------|


http://cocofunka.bandcamp.com/
Добавлено: 05.07.2013
Другие материалы по этой песне:
  • Аккорды и текст

Страница создана 05.07.2013
http://primanota.ru/cocofunka/elevarse-chords.htm
Привет, Гость.
Предлагаем пройти революционный курс по гитаре.
Подарок от PrimaNota.Ru, забирай!