PrimaNota.ru - самый крупный в мире бесплатный архив песенных текстов, аккордов, табулатур и нот


Cockney Rejects - Police Car - текст песни, бас-таба, видео

Регистрация Запомнить меня
Войти через:  Facebook Google Twitter Vk Yandex Mail.ru

Cockney Rejects - Police Car - текст песни, бас-таба, видео

Печатать
Просмотров: 154
Авторы: Mick Geggus, Jeff Geggus

intro:
G-----------------------|
D-----------------------|
A--3-0-3-0-3-0-3-0------|
E------------------3-3--|

G-----------------------|
D-----------------------|
A--3-0-3-0-3-0-3-0------|
E------------------3-1--|


verse:
G-----------------------------------|
D-----------------------------------|
A--3-0-3-0-3-0-3-0------------------|
E------------------3-3-3-3-3-3-3-3--|

G-----------------------------------|
D-----------------------------------|
A--3-0-3-0-3-0-3-0------------------|
E------------------3-3-3-3-1-1-1-1--|

chorus:
G---------------------------|
D---------------------------|
A--3-0-3-0-3-0-3-0----------|
E------------------3-3-3-3--|

G---------------------------|
D---------------------------|
A--3-0-3-0-3-0-3-0----------|
E------------------3-3-1-1--|

There are a few other very minor variations of this pattern but if you can play all of 
they will be extremely easy to figure out on your own if you do indeed desire to do so.  
like to slap this song :).
r
Добавлено: 01.03.2012
Другие материалы по этой песне:
  • Аккорды и текст

Страница создана 01.03.2012
http://primanota.ru/cockney-rejects/police-car-chords.htm
Привет, Гость.
Предлагаем пройти революционный курс по гитаре.
Подарок от PrimaNota.Ru, забирай!