PrimaNota.ru - самый крупный в мире бесплатный архив песенных текстов, аккордов, табулатур и нот


Cockney Rebel - Make Me Smile - бас-таба, видео

Регистрация Запомнить меня
Войти через:  Facebook Google Twitter Vk Yandex Mail.ru

Cockney Rebel - Make Me Smile - бас-таба, видео

Печатать
Просмотров: 99
make_me_smile.btab
cockney_rebel

TablEdited by Jan Bjorklund
Tuning : E A D G 	Time Signature: 4/4

 |       |       |       |        |       |       |       |        
|----------------------------0---|2---4---5---4-----------0-------|
|----------------0---2---3-------|--------------------------------|
|----0---2---3-------------------|--------------------------------|
|3-------------------------------|--------------------------------|

 |       |       |       |        |       You've done it,,,        
|--------------------------------|--------------------------------|
|--------------------------------|--------------------------------|
|--------------------------------|--------------------------------|
|3---3---3---3-----------3---3---|--------------------------------|

 |       |       |       |        |       |       |       |        
|----------------0---2-----------|--------------------------------|
|3-----------3---------------3---|----------------------------0---|
|--------------------------------|3-----------3---3---3---3-------|
|--------------------------------|--------------------------------|

 |       |       |       |        |       And pulled the rebel ,,, 
|--------------------------------|----------------0---2-----------|
|--------------------0-------2---|3-----------3---------------3---|
|----------------2---------------|--------------------------------|
|3-----------3-------------------|--------------------------------|

 |       |       |       |        |       |       |       |        
|--------------------------------|--------------------------------|
|--------------------------------|--------------------------------|
|3-----------3---3-------3-------|--------------------------------|
|--------------------------------|3-----------3---3-----------3---|

 |       |       |       |        |   You spoilt the game...       
|--------------------------------|--------------------------------|
|--------------------------------|------------------------0-------|
|--------------------------------|----------------------------3---|
|3-----------3---3-----------1---|3-----------3---3---------------|

 |       |       |       |        |       |       |       |        
|----------------0---2-------0---|--------------------------------|
|3-----------3-------------------|----------------------------0---|
|--------------------------------|3-----------3---3---3---3-------|
|--------------------------------|--------------------------------|

 |       |       |       |        |   For only metal ...  |        
|--------------------------------|------------------------0-------|
|--------------------0-------2---|3-----------3---3---3-----------|
|----------------2h3-------------|--------------------------------|
|3-----------3-------------------|--------------------------------|

 |       |       |       |        |       |       |       |        
|--------------------------------|--------------------------------|
|--------------------------------|--------------------------------|
|3-----------3---3-------2---0---|--------------------------------|
|--------------------------------|3-----------3---3-----------3---|

 |       |       |       |        |       |     Blue eyes,|...     
|--------------------------------|----------------0-0-2-------0---|
|--------------------------------|3-----------3-------------------|
|----------------------------2---|--------------------------------|
|3-----------3---3---3---3-------|--------------------------------|

 |       |       |       |        |       how come|you tell ...    
|--------------------------------|----------------0---2-----------|
|----------------0---2-----------|3-----------3---------------3---|
|3-----------3---------------3---|--------------------------------|
|--------------------------------|--------------------------------|

 |       |       |       |        |       |       |       |        
|--------------------------------|--------------------------------|
|--------------------------------|--------------------------------|
|3-----------3---3---3---2---0---|--------------------------------|
|--------------------------------|3-----------3---3-----------3---|

 |       |       |       |        |   Come|up and see me, ...      
|--------------------------------|----------------2---------------|
|--------------------------------|0-----------0-------0-----------|
|--------------------2-------3---|--------------------------------|
|3-----------3-------------------|--------------------------------|

 |       |       |       |        |       |       |       |        
|----------------0---2-----------|--------------------------------|
|3-----------3---------------3---|--------------------------------|
|--------------------------------|3-----------3---3---2-------0---|
|--------------------------------|--------------------------------|

 |       |       |       |        |   Or do what you want,|...     
|--------------------------------|------------------------2-------|
|--------------------------------|0-----------0---0-----------0---|
|------------------------2---3---|--------------------------------|
|3-----------3---3---------------|--------------------------------|

 |       |       |       |        |       |       |       |        
|----------------------------0---|--------------------------------|
|3-----------3---3---3-----------|--------------------------------|
|--------------------------------|3-----------3---3---2-------0---|
|--------------------------------|--------------------------------|

 |       |       |       |        |       |       |       |        
|--------------------------------|--------------------------------|
|--------------------------------|--------------------------------|
|--------------------------------|--------------------------------|
|3---3---3---3---3---3---3---3---|3-------------------------------|

 |       |     There's nothing... |       |       |       |        
|--------------------------------|--------------------0---2-------|
|--------------------------------|3-----------3---3---------------|
|--------------------------------|--------------------------------|
|--------------------------------|--------------------------------|

 |       |       |       |        |       |       |       |        
|--------------------------------|--------------------------------|
|--------------------------------|--------------------0-------2---|
|3-----------3---3-------3h--5---|----------------2---------------|
|--------------------------------|3-----------3-------------------|

 |       |       |       |        |       |       |       |        
|--------------------0-------2---|--------------------------------|
|3-----------3---3---------------|--------------------------------|
|--------------------------------|3-----------3---3---2-------0---|
|--------------------------------|--------------------------------|

 |       |       |       |        |       |       |       |        
|--------------------------------|--------------------------------|
|--------------------------------|-----      and so on...    -----|
|--------------------------------|--------------------------------|
|3-----------3---3-----------3---|--------------------------------|

 


Created with TablEdit http://www.tabledit.com/


=====
Jan Bjorklund, Finland

     
Добавлено: 19.10.2013
Другие материалы по этой песне:
  • Аккорды и текст

Страница создана 19.10.2013
http://primanota.ru/cockney-rebel/make-me-smile-chords.htm
Привет, Гость.
Предлагаем пройти революционный курс по гитаре.
Подарок от PrimaNota.Ru, забирай!