PrimaNota.ru - самый крупный в мире бесплатный архив песенных текстов, аккордов, табулатур и нот


Cockney Rebel - Hideaway - таба, видео

Регистрация Запомнить меня
Войти через:  Facebook Google Twitter Vk Yandex Mail.ru

Cockney Rebel - Hideaway - таба, видео

Печатать
Просмотров: 119
Авторы музыки: Steve Harley
Авторы текста: Steve Harley
This is hideaway by Cockney Rebel,
its from the album Human Menagerie,
hope you enjoy it!


  e|---------------------8--7--8-7------------------|
  B|--------7-8----7--8--10--------10-8-10-8-7------|
  G|--7---9------9-----------------------------9----|
  D|------------------------------------------------|
  A|------------------------------------------------|
  E|------------------------------------------------|

  Then the verse starts:

  Em                                                 Bm
   let them come a running, take all your money and hideaway
  Em                                                 Bm
   let them come a running, take all your money and flee
  Em                                                 Bm
   let them come a running, take all your money and hideaway
  Em
   hideaway, hideaway


during the verse, instead of the chords, you can also play this riff:

e|--7-7-7--7-7-7--7--7--7--7----------------------------------------|
B|--7-8-8--7-7-8--7--8--7--8----------------------------------------|
G|--9-9-9--9-9-9--9--9--9--9----------------------------------------|
D|--9-9-9--9-9-9--9--9--9--9----------------------------------------|
A|--7-7-7--7-7-7--7--7--7--7---2--2-2-2-2-2--2--2--2--2--2----------|
E|--0-0-0--0-0-0--0--0--0--0---2--2-2-2-2-2--2--2--2--2--2----------|

   Then:

          D                                 Em
   it was summer or maybe spring, i can't remember
          D                                 Em
   it was summer or matbe spring, i can't recall
 D                                            Em
   we found our hearts and stole them from our bodies
 D                                     Em
   we couldn't understand the villain's call
 D                          Em
   we'd often recall the beginnings
 D                                       Em
   we'd often try in vain to change it all
 D                                        Em
   we couldn't help but keep ourselves from sinning
 D           D                  D                D              D
   in summer, summer, or maybe spring, or maybe spring, or maybe spring


   let them come a running, take all your money and hideaway
   let them come a running, take all your money and flee
   let them come a running, take all your money and hideaway
   hideaway, hideaway
   it was summer or maybe spring, i can't remember
   it was summer or maybe spring, i can't recall
   we'd try to always calm our elders
   (but always we did seem to fall)
   we'd never try to tame the burning embers
   (it didn't seem to matter how we'd fare)
   it seemed we couldn't ever escape december
   but it was summer, summer,
   or maybe spring, or maybe spring, or maybe spring

   submitted by genco

   if you've got any corrections, email me at gencayk@turk.net
Добавлено: 02.03.2012
Другие материалы по этой песне:
  • Аккорды и текст

Страница создана 02.03.2012
http://primanota.ru/cockney-rebel/hideaway-chords.htm
Привет, Гость.
Предлагаем пройти революционный курс по гитаре.
Подарок от PrimaNota.Ru, забирай!