PrimaNota.ru - самый крупный в мире бесплатный архив песенных текстов, аккордов, табулатур и нот


Cock Sparrer - Will You - бас-таба, видео

Регистрация Запомнить меня
Войти через:  Facebook Google Twitter Vk Yandex Mail.ru

Cock Sparrer - Will You - бас-таба, видео

Печатать
Просмотров: 122
Уроки эстрадного вокала в Санкт-Петербурге
Tabbed by: 6METAL6BASSIST6
E-mail: petergriffinav@gmail.com

Tuning: EADG

G|----------------------------------------------------------------|
D|----------------------------------------------------------------|
A|0---------------------------------------------------------------|
E|----------------------------------------------------------------|

G|----------------------------------------------------------------|
D|----------------------------------------------------------------|
A|0---0---0---0---0---0---0---0---7---7---7---7---7---7---7---7---|
E|----------------------------------------------------------------|

G|----------------------------------------------------------------|
D|----------------------------------------------------------------|
A|0---------------------------------------------------------------|
E|----------------------------------------------------------------|

G|----------------------------------------------------------------|
D|----------------------------------------------------------------|
A|4---4---4---4---2---2---2---2---0---0---0---0---0---0---0---0---|
E|----------------------------------------------------------------|

G|----------------------------------------------------------------|
D|----------------------------------------------------------------|
A|0---------------------------------------------------------------|
E|----------------------------------------------------------------|

G|----------------------------------------------------------------|
D|----------------------------------------------------------------|
A|0---0---0---0---0---0---0---0---7-------7---7---7---7---7---7---|
E|----------------------------------------------------------------|

G|----------------------------------------------------------------|
D|----------------------------------------------------------------|
A|0---------------------------------------------------------------|
E|----------------------------------------------------------------|

G|----------------------------------------------------------------|
D|----------------------------------------------------------------|
A|4---4---4---4---2---2---2---2---0---0---0---0---0---0---0---0---|
E|----------------------------------------------------------------|

G|----------------------------------------------------------------|
D|----------------------------------------------------------------|
A|0---------------------------------------------------------------|
E|----------------------------------------------------------------|

G|----------------------------------------------------------------|
D|----------------------------------------------------------------|
A|0---0---0---0---0---0---0---0---7---7---7---7---7---7---7---7---|
E|----------------------------------------------------------------|

G|----------------------------------------------------------------|
D|----------------------------------------------------------------|
A|0---------------------------------------------------------------|
E|----------------------------------------------------------------|

G|----------------------------------------------------------------|
D|----------------------------------------------------------------|
A|4---4---4---4---2---2---2---2---0---0---0-----------------------|
E|----------------------------------------------------------------|

0:28

G|----------------------------------------------------------------|
D|----------------------------------------------------------------|
A|5---5---5---5---5---5---5---5---5---5---5---5---5---5---5-------|
E|----------------------------------------------------------------|

G|----------------------------------------------------------------|
D|--------------------------------7---7---7---7---4---4---4---4---|
A|0---0---0---0---0---0---0---------------------------------------|
E|----------------------------------------------------------------|

G|----------------------------------------------------------------|
D|----------------------------------------------------------------|
A|7---7---7---7---7---7---7---7---7---7---7---7---7---7---7-------|
E|----------------------------------------------------------------|

G|----------------------------------------------------------------|
D|----------------------------------------------------------------|
A|0---0---0---0---0---0---0-------2---2---2---2---4---4---4---4---|
E|----------------------------------------------------------------|

G|----------------------------------------------------------------|
D|----------------------------------------------------------------|
A|5---5---5---5---5---5---5---5---5---5---5---5---5---5---5-------|
E|----------------------------------------------------------------|

G|----------------------------------------------------------------|
D|--------------------------------7---7---7---7---4---4---4---4---|
A|0---0---0---0---0---0---0---------------------------------------|
E|----------------------------------------------------------------|

G|----------------------------------------------------------------|
D|----------------------------------------------------------------|
A|2---2---2---2---2---2---2-------5---5---5---5---5---5---5---5---|
E|----------------------------------------------------------------|

G|----------------------------------------------------------------|
D|----------------------------------------------------------------|
A|5---5---5---5---5---5---5---5---5---5---5---5---5---5---5-------|
E|----------------------------------------------------------------|

0:45

G|----------------------------------------------------------------|.
D|----------------------------------------------------------------|.
A|0---0---0---0---0---0---0-------4---4---4---4---4---4---4-------|.
E|----------------------------------------------------------------|.
                                                                   . x4
G|----------------------------------------------------------------|.
D|----------------------------------------------------------------|.
A|2---2---2---2---2---2---2-------5---5---5---5---5---5---5-------|.
E|----------------------------------------------------------------|.

1:03

G|----------------------------------------------------------------|
D|----------------------------------------------------------------|
A|0---------------------------------------------------------------|
E|----------------------------------------------------------------|

G|----------------------------------------------------------------|
D|----------------------------------------------------------------|
A|0---0---0---0---0---0---0---0---7-------7---7---7---7---7---7---|
E|----------------------------------------------------------------|

G|----------------------------------------------------------------|
D|----------------------------------------------------------------|
A|0---------------------------------------------------------------|
E|----------------------------------------------------------------|

G|----------------------------------------------------------------|
D|----------------------------------------------------------------|
A|4---4---4---4---2---2---2---2---0---0---0---0---0---0---0---0---|
E|----------------------------------------------------------------|

G|----------------------------------------------------------------|
D|----------------------------------------------------------------|
A|0---------------------------------------------------------------|
E|----------------------------------------------------------------|

G|----------------------------------------------------------------|
D|----------------------------------------------------------------|
A|0---0---0---0---0---0---0---0---7---7---7---7---7---7---7---7---|
E|----------------------------------------------------------------|

G|----------------------------------------------------------------|
D|----------------------------------------------------------------|
A|0---------------------------------------------------------------|
E|----------------------------------------------------------------|

G|----------------------------------------------------------------|
D|----------------------------------------------------------------|
A|4---4---4---4---2---2---2---2---0---0---0-----------------------|
E|----------------------------------------------------------------|

1:20

G|----------------------------------------------------------------|
D|----------------------------------------------------------------|
A|5---5---5---5---5---5---5---5---5---5---5---5---5---5---5-------|
E|----------------------------------------------------------------|

G|----------------------------------------------------------------|
D|--------------------------------7---7---7---7---4---4---4---4---|
A|0---0---0---0---0---0---0---------------------------------------|
E|----------------------------------------------------------------|

G|----------------------------------------------------------------|
D|----------------------------------------------------------------|
A|7---7---7---7---7---7---7---7---7---7---7---7---7---7---7-------|
E|----------------------------------------------------------------|

G|----------------------------------------------------------------|
D|----------------------------------------------------------------|
A|0---0---0---0---0---0---0-------2---2---2---2---4---4---4---4---|
E|----------------------------------------------------------------|

G|----------------------------------------------------------------|
D|----------------------------------------------------------------|
A|5---5---5---5---5---5---5---5---5---5---5---5---5---5---5-------|
E|----------------------------------------------------------------|

G|----------------------------------------------------------------|
D|--------------------------------7---7---7---7---4---4---4---4---|
A|0---0---0---0---0---0---0---------------------------------------|
E|----------------------------------------------------------------|

G|----------------------------------------------------------------|
D|----------------------------------------------------------------|
A|2---2---2---2---2---2---2-------5---5---5---5---5---5---5---5---|
E|----------------------------------------------------------------|

G|----------------------------------------------------------------|
D|----------------------------------------------------------------|
A|5---5---5---5---5---5---5---5---5---5---5---5---5---5---5-------|
E|----------------------------------------------------------------|

1:38

G|----------------------------------------------------------------|.
D|----------------------------------------------------------------|.
A|0---0---0---0---0---0---0-------4---4---4---4---4---4---4-------|.
E|----------------------------------------------------------------|.
                                                                   . x4
G|----------------------------------------------------------------|.
D|----------------------------------------------------------------|.
A|2---2---2---2---2---2---2-------5---5---5---5---5---5---5-------|.
E|----------------------------------------------------------------|.

1:55

G|----------------------------------------------------------------|.
D|----------------------------------------------------------------|.
A|2---2---2---2---2---2---2-------6---6---6---6---6---6---6-------|.
E|----------------------------------------------------------------|.
                                                                   . x4
G|----------------------------------------------------------------|.
D|----------------------------------------------------------------|.
A|4---4---4---4---4---4---4-------7---7---7---7---7---7---7-------|.
E|----------------------------------------------------------------|.

2:12

G|----------------------------------------------------------------|
D|----------------------------------------------------------------|
A|2---------------------------------------------------------------|
E|----------------------------------------------------------------|

G|----------------------------------------------------------------|
D|--------------------------------4---4---4---4---4---4---4---4---|
A|2---2---2---2---2---2---2---2-----------------------------------|
E|----------------------------------------------------------------|

G|----------------------------------------------------------------|
D|----------------------------------------------------------------|
A|2---------------------------------------------------------------|
E|----------------------------------------------------------------|

G|----------------------------------------------------------------|
D|----------------------------------------------------------------|
A|6---6---6---6---4---4---4---4---2---2---2---2---2---2---2---2---|
E|----------------------------------------------------------------|

G|----------------------------------------------------------------|
D|----------------------------------------------------------------|
A|2---------------------------------------------------------------|
E|----------------------------------------------------------------|

G|----------------------------------------------------------------|
D|--------------------------------4---4---4---4---4---4---4---4---|
A|2---2---2---2---2---2---2---2-----------------------------------|
E|----------------------------------------------------------------|

G|----------------------------------------------------------------|
D|----------------------------------------------------------------|
A|2---------------------------------------------------------------|
E|----------------------------------------------------------------|

G|----------------------------------------------------------------|
D|----------------------------------------------------------------|
A|6---6---6---6---4---4---4---4---2---2---2-----------------------|
E|----------------------------------------------------------------|

2:30

G|----------------------------------------------------------------|
D|----------------------------------------------------------------|
A|7---7---7---7---7---7---7---7---7---7---7---7---7---7---7-------|
E|----------------------------------------------------------------|

G|----------------------------------------------------------------|
D|--------------------------------9---9---9---9---6---6---6---6---|
A|2---2---2---2---2---2---2---------------------------------------|
E|----------------------------------------------------------------|

G|----------------------------------------------------------------|
D|4---4---4---4---4---4---4---4---4---4---4---4---4---4---4-------|
A|----------------------------------------------------------------|
E|----------------------------------------------------------------|

G|----------------------------------------------------------------|
D|----------------------------------------------------------------|
A|2---2---2---2---2---2---2-------4---4---4---4---6---6---6---6---|
E|----------------------------------------------------------------|

G|----------------------------------------------------------------|
D|----------------------------------------------------------------|
A|7---7---7---7---7---7---7---7---7---7---7---7---7---7---7-------|
E|----------------------------------------------------------------|

G|----------------------------------------------------------------|
D|--------------------------------9---9---9---9---6---6---6---6---|
A|2---2---2---2---2---2---2---------------------------------------|
E|----------------------------------------------------------------|

G|----------------------------------------------------------------|
D|----------------------------------------------------------------|
A|4---4---4---4---4---4---4-------7---7---7---7---7---7---7-------|
E|----------------------------------------------------------------|

G|----------------------------------------------------------------|
D|4---4---4---4---4---4---4---4---4---4---4---4---4---4---4-------|
A|----------------------------------------------------------------|
E|----------------------------------------------------------------|

2:47

G|----------------------------------------------------------------|.
D|----------------------------------------------------------------|.
A|2---2---2---2---2---2---2-------6---6---6---6---6---6---6-------|.
E|----------------------------------------------------------------|.
                                                                   . x7
G|----------------------------------------------------------------|.
D|----------------------------------------------------------------|.
A|4---4---4---4---4---4---4-------7---7---7---7---7---7---7-------|.
E|----------------------------------------------------------------|.

G|----------------------------------------------------------------|
D|----------------------------------------------------------------|
A|2---2---2---2---2---2---2---2---2---2---2---2---2---2---2-------|
E|----------------------------------------------------------------|

G|----------------------------------------------------------------|
D|----------------------------------------------------------------|
A|6---------------4-------------------------------2---------------|
E|----------------------------------------------------------------|
Добавлено: 17.10.2015
Другие материалы по этой песне:
  • Аккорды и текст

Страница создана 17.10.2015
http://primanota.ru/cock-sparrer/will-you-chords.htm
Привет, Гость.
Предлагаем пройти революционный курс по гитаре.
Подарок от PrimaNota.Ru, забирай!