PrimaNota.ru - самый крупный в мире бесплатный архив песенных текстов, аккордов, табулатур и нот


Cock Sparrer - True To Yourself - бас-таба, видео

Регистрация Запомнить меня
Войти через:  Facebook Google Twitter Vk Yandex Mail.ru

Cock Sparrer - True To Yourself - бас-таба, видео

Печатать
Просмотров: 68
Tabbed by: 6METAL6BASSIST6 
E-mail: petergriffinav@gmail.com

Tuning: EADG

0:20

G|----------------------------------------------------------------|
D|----------------------------------------------------------------| x3
A|5-----------5-------------------2---2---2---2---2---2---2-------|
E|----------------------------------------------------------------|

G|----------------------------------------------------------------|
D|----------------------------------------------------------------|
A|7---7---7---7---7---7---7---7---7---7---5---5---4---4---2-------|
E|----------------------------------------------------------------|

G|----------------------------------------------------------------|.
D|----------------------------------------------------------------|.
A|0---0---0---0---0---0---0-------7---7---7---7---7---7---7-------|.
E|----------------------------------------------------------------|.
                                                                   .
G|----------------------------------------------------------------|.
D|----------------------------------------------------------------|.
A|0---0---0---0---0---0---0-------7---7---7---7---7---7---7-------|.
E|----------------------------------------------------------------|.
                                                                   . x2
G|----------------------------------------------------------------|.
D|----------------------------------------------------------------|.
A|0---0---0---0---0---0---0-------7---7---7---7---7---7---7-------|.
E|----------------------------------------------------------------|.
                                                                   .
G|----------------------------------------------------------------|.
D|----------------------------------------------------------------|.
A|5---5---5---5---5---5---5---5---5---5---5---5---5---5---5-------|.
E|----------------------------------------------------------------|.

G|----------------------------------------------------------------|
D|----------------------------------------------------------------|
A|0---------------------------------------------------------------|
E|----------------------------------------------------------------|

G|----------------------------------------------------------------|
D|----------------------------------------------------------------|
A|----------------------------------------------------------------|
E|----------------------------------------------------------------|

G|----------------------------------------------------------------|
D|----------------------------------------------------------------|
A|----------------------------------------------------------------|
E|----------------------------------------------------------------|

G|----------------------------------------------------------------|
D|----------------------------------------------------------------|
A|----------------------------------------------------------------|
E|----------------------------------------------------------------|

G|----------------------------------------------------------------|
D|----------------------------------------------------------------|
A|----------------------------------------------------------------|
E|----------------------------------------------------------------|

G|----------------------------------------------------------------|
D|----------------------------------------------------------------|
A|----------------------------------------------------------------|
E|-------------------------------3--------------------------------|

G|-------------------------------|
D|-------------------------------|
A|-------------------------------|
E|-------------------------------|

1:12

G|----------------------------------------------------------------|
D|----------------------------------------------------------------| x3
A|5-----------5-------------------2---2---2---2---2---2---2-------|
E|----------------------------------------------------------------|

G|----------------------------------------------------------------|
D|----------------------------------------------------------------|
A|7---7---7---7---7---7---7---7---7---7---5---5---4---4---2-------|
E|----------------------------------------------------------------|

G|----------------------------------------------------------------|.
D|----------------------------------------------------------------|.
A|0---0---0---0---0---0---0-------7---7---7---7---7---7---7-------|.
E|----------------------------------------------------------------|.
                                                                   .
G|----------------------------------------------------------------|.
D|----------------------------------------------------------------|.
A|0---0---0---0---0---0---0-------7---7---7---7---7---7---7-------|.
E|----------------------------------------------------------------|.
                                                                   . x2
G|----------------------------------------------------------------|.
D|----------------------------------------------------------------|.
A|0---0---0---0---0---0---0-------7---7---7---7---7---7---7-------|.
E|----------------------------------------------------------------|.
                                                                   .
G|----------------------------------------------------------------|.
D|----------------------------------------------------------------|.
A|5---5---5---5---5---5---5---5---5---5---5---5---5---5---5-------|.
E|----------------------------------------------------------------|.

1:48

G|----------------------------------------------------------------|.
D|----------------------------------------------------------------|.
A|0---0---0---0---0---0---0---0---0---0---0---0---0---0---0-------|.
E|----------------------------------------------------------------|.
                                                                   . x8
G|----------------------------------------------------------------|.
D|----------------------------------------------------------------|.
A|5---5---5---5---5---5---5---5---5---5---5---5---5---5---5-------|.
E|----------------------------------------------------------------|.

2:34

G|----------------------------------------------------------------|.
D|----------------------------------------------------------------|.
A|0---0---0---0---0---0---0-------7---7---7---7---7---7---7-------|.
E|----------------------------------------------------------------|.
                                                                   .
G|----------------------------------------------------------------|.
D|----------------------------------------------------------------|.
A|0---0---0---0---0---0---0-------7---7---7---7---7---7---7-------|.
E|----------------------------------------------------------------|.
                                                                   . x3
G|----------------------------------------------------------------|.
D|----------------------------------------------------------------|.
A|0---0---0---0---0---0---0-------7---7---7---7---7---7---7-------|.
E|----------------------------------------------------------------|.
                                                                   .
G|----------------------------------------------------------------|.
D|----------------------------------------------------------------|.
A|5---5---5---5---5---5---5---5---5---5---5---5---5---5---5-------|.
E|----------------------------------------------------------------|.

Repeat until fadeout.

G|----------------------------------------------------------------|
D|----------------------------------------------------------------|
A|5---5---5---5---5---5---5---5---5---5---5---5---5---5---5-------|
E|----------------------------------------------------------------|
Добавлено: 17.10.2015
Вам также может быть интересно:
Другие материалы по этой песне:
  • Аккорды и текст

Страница создана 17.10.2015
http://primanota.ru/cock-sparrer/true-to-yourself-chords.htm
Привет, Гость.
Предлагаем пройти революционный курс по гитаре.
Подарок от PrimaNota.Ru, забирай!