PrimaNota.ru - самый крупный в мире бесплатный архив песенных текстов, аккордов, табулатур и нот


Cock Sparrer - Too Late - таба, бас-таба, видео

Регистрация Запомнить меня
Войти через:  Facebook Google Twitter Vk Yandex Mail.ru

Cock Sparrer - Too Late - таба, бас-таба, видео

Печатать
Просмотров: 135
-----------------------------------------------------------------------------
                                    TOO LATE - Cock Sparrer
-----------------------------------------------------------------------------
Tabbed by: Hotchick1985


Intro (Rhythmguitar):

   A          E          D
   1&2&3&4&   1&2&3&4&   1&2&3&4&   1&2&3&4&
e|----------|----------|----------|----------|
B|----------|----------|----------|----------|
G|----------|-9-999999-|-7-777777-|-77777777-|
D|-7-777777-|-9-999999-|-7-777777-|-77777777-|
A|-7-777777-|-7-777777-|-5-555555-|-55555555-|
E|-5-555555-|----------|----------|----------|

   A          E          D
   1&2&3&4&   1&2&3&4&   1&2&3&4&   1&2&3&4&
e|----------|----------|----------|----------|
B|----------|----------|----------|----------|
G|----------|-9-999999-|-7-777777-|-77777777-|
D|-7-777777-|-9-999999-|-7-777777-|-77777777-|
A|-7-777777-|-7-777777-|-5-555555-|-55555555-|
E|-5-555555-|----------|----------|----------|


Intro (Leadguitar):

   1&2&3&4&   1&2&3&4&   1&2&3&4&   1&2&3&4&
e|----------|----------|----------|----------|
B|-5--5--57-|---5--2---|-3--------|-------24-|
G|----------|----------|----------|----------|
D|----------|----------|----------|----------|
A|----------|----------|----------|----------|
E|----------|----------|----------|----------|

   1&2&3&4&   1&2&3&4&   1&2&3&4&   1&2&3&4&
e|----------|----------|----------|----------|
B|-6--6--67-|---6--4---|-2--------|----------|
G|----------|----------|----------|----------|
D|----------|----------|----------|----------|
A|----------|----------|----------|----------|
E|----------|----------|----------|----------|


Bridge A (Rhythmguitar):

    A  D#      D  E
    1&2&3&4&   1&2&3&4&
e|-----------|----------|
B|-----------|----------|
G|-14--8-----|-7--9-----|
D|-14--8-----|-7--9-----|
A|-12--6-----|-5--7-----|
E|-----------|----------|


Bridge A (Leadguitar):

   1&2&3&4&   1&2&3&4&
e|----------|----------|
B|---232-23-|-3335-----|
G|-2--------|----------|
D|----------|----------|
A|----------|----------|
E|----------|----------|


Vers:

   A          E          D          E
   1&2&3&4&   1&2&3&4&   1&2&3&4&   1&2&3&4&
e|----------|----------|----------|----------|
B|----------|----------|----------|----------|
G|----------|-9-999999-|-7-777777-|-9-999999-|
D|-7-777777-|-9-999999-|-7-777777-|-9-999999-|
A|-7-777777-|-7-777777-|-5-555555-|-7-777777-|
E|-5-555555-|----------|----------|----------|


Bridge B:

   E
   1&2&3&4&
e|----------|
B|----------|
G|-9-999999-|
D|-9-999999-|
A|-7-777777-|
E|----------|


Chorus:

   A           F#               D          E
   1&2&3&4&    1& 2 & 3 & 4 &   1&2&3&4&   1&2&3&4&
e|----------|-----------------|----------|----------|
B|----------|-----------------|----------|----------|
G|----------|-11-111111111111-|-7-777777-|-9-999999-|
D|-7-777777-|-11-111111111111-|-7-777777-|-9-999999-|
A|-7-777777-|--9--9-9-9-9-9-9-|-5-555555-|-7-777777-|
E|-5-555555-|-----------------|----------|----------|

   A           F#               D          E
   1&2&3&4&    1& 2 & 3 & 4 &   1&2&3&4&   1&2&3&4&
e|----------|-----------------|----------|----------|
B|----------|-----------------|----------|----------|
G|----------|-11-111111111111-|-7-777777-|-9-999999-|
D|-7-777777-|-11-111111111111-|-7-777777-|-9-999999-|
A|-7-777777-|--9--9-9-9-9-9-9-|-5-555555-|-7-777777-|
E|-5-555555-|-----------------|----------|----------|

   A           F#               D          E
   1&2&3&4&    1& 2 & 3 & 4 &   1&2&3&4&   1&2&3&4&
e|----------|-----------------|----------|----------|
B|----------|-----------------|----------|----------|
G|----------|-11-111111111111-|-7-777777-|-9-999999-|
D|-7-777777-|-11-111111111111-|-7-777777-|-9-999999-|
A|-7-777777-|--9--9-9-9-9-9-9-|-5-555555-|-7-777777-|
E|-5-555555-|-----------------|----------|----------|

   A          B          D          A
   1&2&3&4&   1&2&3&4&   1&2&3&4&   1&2&3&4&
e|----------|----------|----------|----------|
B|----------|----------|----------|----------|
G|----------|----------|-7-777777-|----------|
D|-7-777777-|-9-999999-|-7-777777-|-7-777777-|
A|-7-777777-|-9-999999-|-5-555555-|-7-777777-|
E|-5-555555-|-7-777777-|----------|-5-555555-|


Bridge C:

   F                                    E
    1& 2 & 3 & 4 &    1 & 2 & 3 & 4 &   1&2&3&4&   1&2&3&4&
e|-----------------|------------------|----------|----------|
B|-----------------|------------------|----------|----------|
G|-10-101010101010-|-1010101010101010-|-xx9-xx9--|-xx9-xx9--|
D|-10-101010101010-|-1010101010101010-|-xx9-xx9--|-xx9-xx9--|
A|--8--8-8-8-8-8-8-|--8-8-8-8-8-8-8-8-|-xx7-xx7--|-xx7-xx7--|
E|-----------------|------------------|----------|----------|


2x Intro
2x Bridge A
4x Vers
1x Bridge B
1x Chorus
2x Bridge A
4x Vers
1x Bridge B
1x Chorus
1x Bridge A
4x Bridge C
2x Intro
1x Chorus
Добавлено: 28.05.2012
Другие материалы по этой песне:
  • Аккорды и текст

Страница создана 28.05.2012
http://primanota.ru/cock-sparrer/too-late-chords.htm
Привет, Гость.
Предлагаем пройти революционный курс по гитаре.
Подарок от PrimaNota.Ru, забирай!