PrimaNota.ru - самый крупный в мире бесплатный архив песенных текстов, аккордов, табулатур и нот


Cock Sparrer - Time To Make Your Move - бас-таба, видео

Регистрация Запомнить меня
Войти через:  Facebook Google Twitter Vk Yandex Mail.ru

Cock Sparrer - Time To Make Your Move - бас-таба, видео

Печатать
Просмотров: 97
Tabbed by: 6METAL6BASSIST6
E-mail: petergriffinav@gmail.com

Tuning: EADG

G|----------------------------------------------------------------|
D|--------------------------------4---4---4---4---4---4---4-------|
A|2---2---2---2---2---2---2---------------------------------------|
E|----------------------------------------------------------------|

G|----------------------------------------------------------------|
D|--------------------------------2---2---2---2---2---2---2-------|
A|2---2---2---2---2---2---2---------------------------------------|
E|----------------------------------------------------------------|

G|----------------------------------------------------------------|
D|--------------------------------1---1---1---1---1---1---1-------|
A|2---2---2---2---2---2---2---------------------------------------|
E|----------------------------------------------------------------|

G|----------------------------------------6-------3---3-----------|
D|2---2---2---2---2---2---2-------4-----------------------4-------|
A|----------------------------------------------------------------|
E|----------------------------------------------------------------|

G|----------------------------------------------------------------|
D|--------------------------------4---4---4---4---4---4---4-------|
A|2---2---2---2---2---2---2---------------------------------------|
E|----------------------------------------------------------------|

G|----------------------------------------------------------------|
D|--------------------------------2---2---2---2---2---2---2-------|
A|2---2---2---2---2---2---2---------------------------------------|
E|----------------------------------------------------------------|

G|----------------------------------------------------------------|
D|--------------------------------1---1---1---1---1---1---1-------|
A|2---2---2---2---2---2---2---------------------------------------|
E|----------------------------------------------------------------|

G|----------------------------------------------------------------|
D|2---2---2---2---2---2---2-------4---4---4---4---4---4---4-------|
A|----------------------------------------------------------------|
E|----------------------------------------------------------------|

0:20

G|----------------------------------------------------------------|
D|----------------------------------------------------------------|
A|5---5---5---5---5---5---5-------7---7---7---7---7---7---7-------|
E|----------------------------------------------------------------|

G|--------------------------------6-------3-----------------------|
D|4---4---4---4---4---4---4-----------------------4---------------|
A|--------------------------------------------------------5-------|
E|----------------------------------------------------------------|

G|----------------------------------------------------------------|.
D|----------------------------------------------------------------|.
A|2---2---2---2---2---2---2-------5---5---5---5---5---5---5-------|.
E|----------------------------------------------------------------|.
                                                                   . x4
G|----------------------------------------------------------------|.
D|5---5---5---5---5---5---5-------4---4---4---4-------------------|.
A|------------------------------------------------7---7---5---5---|.
E|----------------------------------------------------------------|.

0:47

G|----------------------------------------------------------------|
D|--------------------------------4---4---4---4---4---4---4-------|
A|2---2---2---2---2---2---2---------------------------------------|
E|----------------------------------------------------------------|

G|----------------------------------------------------------------|
D|--------------------------------2---2---2---2---2---2---2-------|
A|2---2---2---2---2---2---2---------------------------------------|
E|----------------------------------------------------------------|

G|----------------------------------------------------------------|
D|--------------------------------1---1---1---1---1---1---1-------|
A|2---2---2---2---2---2---2---------------------------------------|
E|----------------------------------------------------------------|

G|----------------------------------------6-------3---3-----------|
D|2---2---2---2---2---2---2-------4-----------------------4-------|
A|----------------------------------------------------------------|
E|----------------------------------------------------------------|

G|----------------------------------------------------------------|
D|--------------------------------4---4---4---4---4---4---4---4---|
A|2---2---2---2---2---2---2---------------------------------------|
E|----------------------------------------------------------------|

G|----------------------------------------------------------------|
D|--------------------------------2---2---2---2---2---2---2-------|
A|2---2---2---2---2---2---2---------------------------------------|
E|----------------------------------------------------------------|

G|----------------------------------------------------------------|
D|--------------------------------1---1---1---1---1---1---1-------|
A|2---2---2---2---2---2---2---------------------------------------|
E|----------------------------------------------------------------|

G|----------------------------------------------------------------|
D|2---2---2---2---2---2---2-------4---4---4---4---4---4---4-------|
A|----------------------------------------------------------------|
E|----------------------------------------------------------------|

1:07

G|----------------------------------------------------------------|
D|----------------------------------------------------------------|
A|5---5---5---5---5---5---5-------7---7---7---7---7---7---7-------|
E|----------------------------------------------------------------|

G|--------------------------------6-------3-----------------------|
D|4---4---4---4---4---4---4-----------------------4---------------|
A|--------------------------------------------------------5-------|
E|----------------------------------------------------------------|

G|----------------------------------------------------------------|.
D|----------------------------------------------------------------|.
A|2---2---2---2---2---2---2-------5---5---5---5---5---5---5-------|.
E|----------------------------------------------------------------|.
                                                                   . x4
G|----------------------------------------------------------------|.
D|5---5---5---5---5---5---5-------4---4---4---4-------------------|.
A|------------------------------------------------7---7---5---5---|.
E|----------------------------------------------------------------|.

1:33

G|----------------------------------------------------------------|.
D|--------------------------------4---4---4---4---4---4---4-------|.
A|2---2---2---2---2---2---2---------------------------------------|.
E|----------------------------------------------------------------|.
                                                                   . x2
G|----------------------------------------------------------------|.
D|----------------------------------------------------------------|.
A|5---5---5---5---5---5---5-------7---7---7---7---7---7---7-------|.
E|----------------------------------------------------------------|.

G|----------------------------------------------------------------|
D|----------------------------------------------------------------|
A|5---5---5---5---5---5---5-------7---7---7---7---7---7---7-------|
E|----------------------------------------------------------------|

G|--------------------------------6-------3-----------------------|
D|4---4---4---4---4---4---4-----------------------4---------------|
A|--------------------------------------------------------5-------|
E|----------------------------------------------------------------|

Repeat until fadeout.

G|----------------------------------------------------------------|
D|----------------------------------------------------------------|
A|2---2---2---2---2---2---2-------5---5---5---5---5---5---5-------|
E|----------------------------------------------------------------|

G|----------------------------------------------------------------|
D|5---5---5---5---5---5---5-------4---4---4---4-------------------|
A|------------------------------------------------7---7---5---5---|
E|----------------------------------------------------------------|
Добавлено: 17.10.2015
Другие материалы по этой песне:
  • Аккорды и текст

Страница создана 17.10.2015
http://primanota.ru/cock-sparrer/time-to-make-your-move-chords.htm
Привет, Гость.
Предлагаем пройти революционный курс по гитаре.
Подарок от PrimaNota.Ru, забирай!