PrimaNota.ru - самый крупный в мире бесплатный архив песенных текстов, аккордов, табулатур и нот


Cock Sparrer - Sussed - бас-таба, видео

Регистрация Запомнить меня
Войти через:  Facebook Google Twitter Vk Yandex Mail.ru

Cock Sparrer - Sussed - бас-таба, видео

Печатать
Просмотров: 140
Уроки эстрадного вокала в Санкт-Петербурге
Tabbed by: 6METAL6BASSIST6
E-mail: petergriffinav@gmail.com

Tuning: EADG

G|----------------------------------------------------------------|
D|2---2---2---2---2---2---2---2---3---3---3-----------------------| x3
A|--------------------------------------------5-------5---3-------|
E|----------------------------------------------------------------|

G|----------------------------------------------------------------|
D|----------------------------------------------------------------|
A|2---------------------------------------------------------------|
E|----------------------------------------------------------------|

G|----------------------------------------------------------------|
D|2---2---2---2---2---2---2---2---3---3---3-----------------------| x3
A|--------------------------------------------5-------5---3-------|
E|----------------------------------------------------------------|

G|----------------------------------------------------------------|
D|----------------------------------------------------------------|
A|2---2---2---2---2---2---2---2---2---2---2---2---2---2---2-------|
E|----------------------------------------------------------------|

0:20

G|----------------------------------------------------------------|.
D|2---2---2---2---2---2---2---------------------------------------|.
A|--------------------------------1---2---2---2---1---2---2-------|.
E|----------------------------------------------------------------|.
                                                                   .
G|----------------------------------------------------------------|.
D|2---2---2---2---2---2---2---------------------------------------|.
A|--------------------------------1---2---2---2---1---2---2-------|.
E|----------------------------------------------------------------|.
                                                                   . x2
G|----------------------------------------------------------------|.
D|2---2---2---2---2---2---2---------------------------------------|.
A|--------------------------------1---2---2---2---1---2---2-------|.
E|----------------------------------------------------------------|.
                                                                   .
G|----------------------------------------------------------------|.
D|----------------------------------------------------------------|.
A|--------------------------------0---0---0---0---0---0---0-------|.
E|3---3---3---3---3---3---3---------------------------------------|.

G|----------------------------------------------------------------|
D|----------------------------------------------------------------|
A|2---2---2---2---2---2---2---2---2---2---2---2---2---2---2-------|
E|----------------------------------------------------------------|

0:42

G|----------------------------------------------------------------|.
D|2---2---2---2---2---2---2-------3---3---3-----------------------|.
A|--------------------------------------------5-------5---3-------|.
E|----------------------------------------------------------------|.
                                                                   .
G|----------------------------------------------------------------|.
D|2---2---2---2---2---2---2-------3---3---3-----------------------|.
A|--------------------------------------------5-------5---3-------|.
E|----------------------------------------------------------------|.
                                                                   . x2
G|----------------------------------------------------------------|.
D|2---2---2---2---2---2---2-------3---3---3-----------------------|.
A|--------------------------------------------5-------5---3-------|.
E|----------------------------------------------------------------|.
                                                                   .
G|----------------------------------------------------------------|.
D|----------------------------------------------------------------|.
A|2---2---2---2---2---2---2---2---2---2---2---2---2---2---2-------|.
E|----------------------------------------------------------------|.

Repeat from 0:20







1:41

G|----------------------------------------------------------------|.
D|5---5---5---5---5---5---5---------------------------------------|.
A|--------------------------------5---5---5---5---5---5---5-------|.
E|----------------------------------------------------------------|.
                                                                   . x3
G|----------------------------------------------------------------|.
D|----------------------------------------------------------------|.
A|7---7---7---7---5---7---7---7---7---7---7---7---7---7---7-------|.
E|----------------------------------------------------------------|.

G|----------------------------------------------------------------|
D|5---5---5---5---5---5---5---------------------------------------|
A|--------------------------------5---5---5---5---5---5---5-------|
E|----------------------------------------------------------------|

G|----------------------------------------------------------------|
D|----------------------------------------------------------------|
A|2---2---2---2---2---2---2---2---2---2---2---2---2---2---2-------|
E|----------------------------------------------------------------|

1:58

G|----------------------------------------------------------------|
D|2---2---2---2---2---2---2---2---3---3---3-----------------------| x3
A|--------------------------------------------5-------5---3-------|
E|----------------------------------------------------------------|

G|----------------------------------------------------------------|
D|----------------------------------------------------------------|
A|2---------------------------------------------------------------|
E|----------------------------------------------------------------|

2:08

G|----------------------------------------------------------------|.
D|5---5---5---5---5---5---5---------------------------------------|.
A|--------------------------------5---5---5---5---5---5---5-------|.
E|----------------------------------------------------------------|.
                                                                   . x3
G|----------------------------------------------------------------|.
D|----------------------------------------------------------------|.
A|7---7---7---7---5---7---7---7---7---7---7---7---7---7---7-------|.
E|----------------------------------------------------------------|.

G|----------------------------------------------------------------|
D|5---5---5---5---5---5---5---------------------------------------|
A|--------------------------------5---5---5---5---5---5---5-------|
E|----------------------------------------------------------------|

G|----------------------------------------------------------------|
D|----------------------------------------------------------------|
A|2---2---2---2---2---2---2---2---2---2---2---2---2---2---2-------|
E|----------------------------------------------------------------|

2:27

G|----------------------------------------------------------------|.
D|2---2---2---2---2---2---2-------3---3---3-----------------------|.
A|--------------------------------------------5-------5---3-------|.
E|----------------------------------------------------------------|.
                                                                   .
G|----------------------------------------------------------------|.
D|2---2---2---2---2---2---2-------3---3---3-----------------------|.
A|--------------------------------------------5-------5---3-------|.
E|----------------------------------------------------------------|.
                                                                   . x4
G|----------------------------------------------------------------|.
D|2---2---2---2---2---2---2-------3---3---3-----------------------|.
A|--------------------------------------------5-------5---3-------|.
E|----------------------------------------------------------------|.
                                                                   .
G|----------------------------------------------------------------|.
D|----------------------------------------------------------------|.
A|2---2---2---2---2---2---2---2---2---2---2---2---2---2---2-------|.
E|----------------------------------------------------------------|.

G|----|
D|2---|
A|----|
E|----|
Добавлено: 17.10.2015
Другие материалы по этой песне:
  • Аккорды и текст

Страница создана 17.10.2015
http://primanota.ru/cock-sparrer/sussed-chords.htm
Привет, Гость.
Предлагаем пройти революционный курс по гитаре.
Подарок от PrimaNota.Ru, забирай!