PrimaNota.ru - самый крупный в мире бесплатный архив песенных текстов, аккордов, табулатур и нот


Cock Sparrer - Suicide Girls - таба, бас-таба, видео

Регистрация Запомнить меня
Войти через:  Facebook Google Twitter Vk Yandex Mail.ru

Cock Sparrer - Suicide Girls - таба, бас-таба, видео

Печатать
Просмотров: 327
-----------------------------------------------------------------------------
                             SUICIDE GIRLS - Cock Sparrer
-----------------------------------------------------------------------------
Tabbed by: Hotchick1985


Intro (play palm muted):

   1&2&3&4&   1&2&3&4&   1&2&3&4&   1&2&3&4&
e|----------|----------|----------|----------|
B|----------|----------|----------|----------|
G|----------|----------|----------|----------|
D|----------|----------|----------|----------|
A|-99999999-|-99999999-|-99999999-|-99999999-|
E|-77777777-|-77777777-|-77777777-|-77777777-|


Vers A (play palm muted):

   1&2&3&4&    1 & 2 &3&4&   1&2&3&4&   1&2&3&4&
e|----------|--------------|----------|----------|
B|----------|--------------|----------|----------|
G|----------|--------------|----------|----------|
D|----------|-11111111-----|----------|-9999-----|
A|-99999999-|--9-9-9-99999-|-99999999-|-77779999-|
E|-77777777-|---------7777-|-77777777-|-----7777-|

   1&2&3&4&    1 & 2 &3&4&   1&2& 3 & 4 &   1&2&3&4&
e|----------|--------------|--------------|----------|
B|----------|--------------|--------------|----------|
G|----------|--------------|--------------|----------|
D|----------|-11111111-----|-----11111111-|----------|
A|-99999999-|--9-9-9-99999-|-9999-9-9-9-9-|-99999999-|
E|-77777777-|---------7777-|-7777---------|-77777777-|


Chorus:

   1&2&3&4&   1&2&3&4&   1&2&3&4&   1&2&3&4&
e|----------|----------|----------|----------|
B|----------|----------|----------|----------|
G|-9-999999-|-99999999-|----------|----------|
D|-9-999999-|-99999999-|-9-999999-|-99999999-|
A|-7-777777-|-77777777-|-9-999999-|-99999999-|
E|----------|----------|-7-777777-|-77777777-|

e|----------|----------|----------|------------------|
B|----------|----------|----------|------------------|
G|-8-888888-|-88888888-|-9-999999-|-1111111111111111-|
D|-8-888888-|-88888888-|-9-999999-|-1111111111111111-|
A|-6-666666-|-66666666-|-7-777777-|--9-9-9-9-9-9-9-9-|
E|----------|----------|----------|------------------|


Vers B:

   1&2&3&4&    1& 2 &3&4&   1&2&3&4&   1&2&3&4&
e|----------|-------------|----------|----------|
B|----------|-------------|----------|----------|
G|----------|-11-1111-----|----------|-9-99-----|
D|-9-9999xx-|-11-11119-99-|-9-9999xx-|-9-999-99-|
A|-9-9999xx-|--9--9-99-99-|-9-9999xx-|-7-779-99-|
E|-7-7777xx-|--------7-77-|-7-7777xx-|-----7-77-|

   1&2&3&4&    1& 2 &3&4&   1&2& 3 & 4 &   1&2&3&4&
e|----------|-------------|--------------|----------|
B|----------|-------------|--------------|----------|
G|----------|-11-1111-----|-----11111111-|----------|
D|-9-9999xx-|-11-11119-99-|-999911111111-|-99999999-|
A|-9-9999xx-|--9--9-99-99-|-9999-9-9-9-9-|-99999999-|
E|-7-7777xx-|--------7-77-|-7777---------|-77777777-|


Solo:

     1&2&3&4&   1&2&3&4&   1&2&3&4&   1&2&3&4&
e|------------|----------|------------|----------|
B|------------|----------|------------|----------|
G|------------|----------|------------|----------|
D|------------|-----2----|------------|-2-421----|
A|-1h2-222-22-|-4-4------|-1h2-222-22-|----------|
E|------------|----------|------------|----------|

     1&2&3&4&   1&2&3&4&     1&2&3&4&   1&2&3&4& 
e|------------|----------|------------|----------|
B|------------|----------|------------|----------|
G|------------|----------|------------|----------|
D|------------|-----2----|------------|----------|
A|-1h2-222-22-|-4-4------|-4h6-66464--|-2--------|
E|------------|----------|------------|----------|

     1&2&3&4&   1&2&3&4&     1&2&3&4&   1&2&3&4& 
e|------------|----------|------------|----------|
B|------------|-----4----|------------|-5-754----|
G|-3h4-444-44-|-6-6------|-3h4-444-44-|----------|
D|------------|----------|------------|----------|
A|------------|----------|------------|----------|
E|------------|----------|------------|----------|

     1&2&3&4&   1&2&3&4&     1&2&3&4&   1&2&3&4& 
e|------------|----------|------------|----------|
B|------------|-----4----|-2h4-44242--|----------|
G|-3h4-444-44-|-6-6------|------------|-4--------|
D|------------|----------|------------|----------|
A|------------|----------|------------|----------|
E|------------|----------|------------|----------|


1x Intro
2x Vers A
1x Chorus
1x Vers B
1x Solo
1x Intro
2x Vers A
1x Chorus
5x Vers B
Добавлено: 25.03.2012
Другие материалы по этой песне:

Страница создана 25.03.2012
http://primanota.ru/cock-sparrer/suicide-girls-chords.htm
Привет, Гость.
Предлагаем пройти революционный курс по гитаре.
Подарок от PrimaNota.Ru, забирай!