PrimaNota.ru - самый крупный в мире бесплатный архив песенных текстов, аккордов, табулатур и нот


Cock Sparrer - Running Riot - таба, видео

Регистрация Запомнить меня
Войти через:  Facebook Google Twitter Vk Yandex Mail.ru

Cock Sparrer - Running Riot - таба, видео

Печатать
Просмотров: 166
-------------------------------------------------------------------------------
                             Running Riot - Cocksparrer
-------------------------------------------------------------------------------
Tabbed by: Rick Morin
Email: clash_city_rocker89@hotmail.com

Tuning: Standard E Tuning

INTRO:
e|---------------------------------------------------------------------------|
B|---------------------------------------------------------------------------|
G|---------------------------------------------------------------------------|
D|---------------------------------------------------------------------------|
A|---99--11--9--12--9--11--9----9--11--9--12--9--11--9----777777777----------|
E|---77--7---7--7---7--7---7----7--7---7--7---7--7---7----555555555----------|(Rhythm)x4

e|-------------------------|
B|-------------------------|
G|---777--666-4-2-4-2------|
D|-------------------------|
A|-------------------------|
E|-------------------------|(Lead)x4
        WEEEEEELLLLL!ALRIGHT!


VERSE:
e|---------------------------------------------------------------------------|
B|---------------------------------------------------------------------------|
G|---------------------------------------------------------------------------|
D|---------------------------------------------------------------7---------7-|
A|---99--11--9--12--9--11--9----9--11--9--12--9--11--9----77777--5--77777--5-|
E|---77--7---7--7---7--7---7----7--7---7--7---7--7---7----55555-----55555----|(Rhythm)x4


CHORUS:
I CAN'T STAND THE PEACE AND QUIET...
e|---------------------------------------------------------------------------|
B|---------------------------------------------------------------------------|
G|---------------------------------------------------------------------------|
D|---77777------------------------------99999--------------------------------|
A|---55555--77777--999999999--8--77777--77777--999999999--8------------------|
E|----------55555--777777777--6--55555---------777777777--6------------------|

e|---------------------------------------------------------------------------|
B|---------------------------------------------------------------------------|
G|---------------------------------------------------------------------------|
D|---77777------------------------------99999--9--9--9--9--9--9--9-7---------|
A|---55555--77777--999999999--8--77777--77777--------------------------------|
E|----------55555--777777777--6--55555---------------------------------------|


(INTRO)

(VERSE)

(CHORUS)


SOLO:
e|--------------------------------------|
B|-------7---7---7---7---7--------------|
G|-----9---9---9---9---9----------------|
D|---9---9---9---9---9----9-9-(7)-------|
A|--------------------------------------|
E|--------------------------------------|x2

e|---------------------------------------------------------------------------|
B|---11b13-11b13-11b13-11b13-11b13--10---------------------------------------|
G|--------------------------------------11--9h7-7--9b11b9-7h9h7-(9)----------|
D|---------------------------------------------------------------------------|
A|---------------------------------------------------------------------------|
E|---------------------------------------------------------------------------|

e|--------------7-----------------------------------|
B|---------------------7---7---7---7---7------------|
G|---9b11b9--7-------9---9---9---9---9--------------|
D|-----------------9---9---9---9---9----9-9-(7)-----|
A|--------------------------------------------------|
E|--------------------------------------------------|

(CHORUS)x2
THERE'S A PAUSE BETWEEN BOTH CHORUSES

ENDING:
e|---------------------------------------------------------------------------|
B|-----------------------------12-12-12-11-11-11-10-10-10-9-9-9-8-8-7--------|
G|---------------------------------------------------------------------------|
D|----------------9-8-7-6-5-4------------------------------------------------|
A|---------------------------------------------------------------------9-----|
E|---7-6-5-4-3-2-------------------------------------------------------7-----|



| /  slide up
| \  slide down
| h  hammer-on
| p  pull-off
| ~  vibrato
| +  harmonic
| x  Mute note
===============================================================================
Добавлено: 22.04.2012
Другие материалы по этой песне:
  • Аккорды и текст

Страница создана 22.04.2012
http://primanota.ru/cock-sparrer/running-riot-chords.htm
Привет, Гость.
Предлагаем пройти революционный курс по гитаре.
Подарок от PrimaNota.Ru, забирай!