PrimaNota.ru - самый крупный в мире бесплатный архив песенных текстов, аккордов, табулатур и нот


Cock Sparrer - Gotta Get Out - таба, бас-таба, видео

Регистрация Запомнить меня
Войти через:  Facebook Google Twitter Vk Yandex Mail.ru

Cock Sparrer - Gotta Get Out - таба, бас-таба, видео

Печатать
Просмотров: 132
Band: Cock Sparrer
Song: Gotta Get Out
Albm: Here We Stand

Intro:
|---------------------|-----------------------|
|---------------------|-----------------------|
|-------9-9--7-7-7-7--|--12-12--7-7-----------|
|--7-7--9-9--7-7-7-7--|--12-12--7-7--7-7-7-7--|
|--7-7--7-7--5-5-5-5--|--10-10--5-5--7-7-7-7--|
|--5-5----------------|--------------5-5-5-5--|

Verse:
|------------------------------------------|
|------------------------------------------|
|------------99999999--77777777------------|
|--77777777--99999999--77777777--77777777--|
|--77777777--77777777--55555555--77777777--|
|--55555555----------------------55555555--|

Interlude:
|----------------------------------|
|----------------------------------|
|--12-12-12-12--7-7-7-7------------|
|--12-12-12-12--7-7-7-7--7-7-7-7---|
|--10-10-10-10--5-5-5-5--7-7-7-7---|
|------------------------5-5-5-5---|

|----------------------------------|
|----------------------------------|
|--12-12-12-12--7-7-7-7--9-9-9-9---|
|--12-12-12-12--7-7-7-7--9-9-9-9---|
|--10-10-10-10--5-5-5-5--7-7-7-7---|
|----------------------------------|

Chorus:
|---------------------|----|-----------|
|---------------------|----|-----------|
|------------7-7-7-7--|----|--9-9-9-9--|
|--7--7--7---7-7-7-7--|----|--9-9-9-9--|
|--7--7--7---5-5-5-5--|-x3-|--7-7-7-7--|
|--5--5--5------------|----|-----------|

After-Chorus:
|------------------------------------------|
|------------------------------------------|
|-----------6-6-6-6--12-12-12-12--7-7-7-7--|
|--7-7-7-7--6-6-6-6--12-12-12-12--7-7-7-7--|
|--7-7-7-7--4-4-4-4--10-10-10-10--5-5-5-5--|
|--5-5-5-5---------------------------------|

|---------------------------------------------|
|---------------------------------------------|
|-----------6-6-6-6--12-12-12-12-12-12-12-12--|
|--7-7-7-7--6-6-6-6--12-12-12-12-12-12-12-12--|
|--7-7-7-7--4-4-4-4--10-10-10-10-10-10-10-10--|
|--5-5-5-5------------------------------------|

|------------------------------------------|
|------------------------------------------|
|-----------6-6-6-6--12-12-12-12--7-7-7-7--|
|--7-7-7-7--6-6-6-6--12-12-12-12--7-7-7-7--|
|--7-7-7-7--4-4-4-4--10-10-10-10--5-5-5-5--|
|--5-5-5-5---------------------------------|

|-------------------------------------|
|-------------------------------------|
|-----------6-6-6-6--9-9-9-9-9-9-9-9--|
|--7-7-7-7--6-6-6-6--9-9-9-9-9-9-9-9--|
|--7-7-7-7--4-4-4-4--7-7-7-7-7-7-7-7--|
|--5-5-5-5----------------------------|

Ending:
|---------------------------|-----------------------------|
|---------------------------|-----------------------------|
|-------9-9--7----5h7br7-5--|--12-12--7-7-------5h7br7-5--|
|--7-7--9-9--7-5h7--------7-|--12-12--7-7--7-5h7--------7-|
|--7-7--7-7--5--------------|--10-10--5-5--7--------------|
|--5-5----------------------|--------------5--------------|

|-----------------------------------|
|-----------------------------------|
|--12-12--7-7-7-7-------------------|
|--12-12--7-7-7-7--7-7-7-7-7-7-7-7--|
|--10-10--5-5-5-5--7-7-7-7-7-7-7-7--|
|------------------5-5-5-5-5-5-5-5--|
"Get right outta here"

That's it.
Tabbed by owen_b123@hotmail.com
Добавлено: 25.02.2012
Другие материалы по этой песне:
  • Аккорды и текст

Страница создана 25.02.2012
http://primanota.ru/cock-sparrer/gotta-get-out-chords.htm
Привет, Гость.
Предлагаем пройти революционный курс по гитаре.
Подарок от PrimaNota.Ru, забирай!