PrimaNota.ru - самый крупный в мире бесплатный архив песенных текстов, аккордов, табулатур и нот


Cock And Ball Torture - Whorrorbitch - таба, видео

Регистрация Запомнить меня
Войти через:  Facebook Google Twitter Vk Yandex Mail.ru

Cock And Ball Torture - Whorrorbitch - таба, видео

Печатать
Просмотров: 122
Cock And Ball Torture
Opus(sy) VI
Whorrorbitch

Copyright (c)  Shredded Records 2000
Version 1.0 - 3.7.2010

Transcribed By: Yaniv Dekel
Email:          lickywebster@yahoo.com

.  - palm mute           /  - slide up to
\  - slide down to       ~  - vibrato
h  - hammer on           b  - Bend
p  - pull off            Suffixes for bend
t  - tap                 f  - full bend    h - half bend
ph - pinched harmonic    q  - quarter bend t - tap bend
*  - see comment         ^  - Hold bend    r release bend
x  - Stuccatto           ~  - vibrato bend
,  - slight palm mute    () - ghost note, sustained note
"  - tremolo note        <> - Trill

Tuning is B standard
(Actually, the tuning is somewhere between B and C. 
 Around a quarter-step away from each)

Intro x1
|----------------|
|----------------|
|----------------|
|----------------|
|-5-3-4-0-4-2-3--|
|-5-3-4-0-4-2-3--|
  .     . .

Riff A1 x4
|---------------------------------|
|---------------------------------|
|---------------------------------|
|---------------------------------|
|-5-3-4-0-4-2-3---5-3-4-0-4-2-3-0-|
|-5-3-4-0-4-2-3---5-3-4-0-4-2-3-0-|
  .     . .       .     . .   . .

Riff A2 x4
|---------------------------------|
|---------------------------------|
|---------------------------------|
|---------------------------------|
|-5-3-4-0-4-2-3---5-3-4-0-4-2-3-0-|
|-5-3-4-0-4-2-3---5-3-4-0-4-2-3-0-|
                              . .

Riff A1 x4
Riff A2 x4

Riff B1 x4
|------------------|
|------------------|
|------------------|
|------------------|
|-4-3-5-4-6-7-3-2--|
|-2-1-3-2-4-5-1-0--|
                .

Riff B2 x4
|------------------|
|------------------|
|------------------|
|------------------|
|-4-3-5-4-6-7-3-2--|
|-2-1-3-2-4-5-1-0--|
  . . . .       .

Riff B1 x4
Riff B2 x4

Riff C x9
|--------------------------|
|--------------------------|
|--------------------------|
|--------------------------|
|-7-5-4-3-3-3--3-3-2-4-4-4-|
|-5-3-2-3-3-3--3-3-2-4-4-4-|
  .   .          . .

Riff A1 x4
Riff B2 x8
Riff B1 x8
Riff A1 x4
Riff A2 x4

End x1
|-------|
|-------|
|-------|
|-------|
|-2-----|
|-0-----|


END
Добавлено: 28.06.2012
Другие материалы по этой песне:
  • Аккорды и текст

Страница создана 28.06.2012
http://primanota.ru/cock-and-ball-torture/whorrorbitch-chords.htm
Привет, Гость.
Предлагаем пройти революционный курс по гитаре.
Подарок от PrimaNota.Ru, забирай!