PrimaNota.ru - самый крупный в мире бесплатный архив песенных текстов, аккордов, табулатур и нот


Cock And Ball Torture - Where Girls Learn To Piss On Command - таба, видео

Регистрация Запомнить меня
Войти через:  Facebook Google Twitter Vk Yandex Mail.ru

Cock And Ball Torture - Where Girls Learn To Piss On Command - таба, видео

Печатать
Просмотров: 80
CBT - Where Girls Learn to Piss on Command

Tuning: A Standard
 
Riff 2

|------------|
|------------|
|------------|
|------------|
|-3/5-5------|
|-1/3-3-0----| X2
      . .

Riff 1

|---------------------|
|---------------------|
|---------------------|
|---------------------|
|-5-5---7-5-4---4-----|
|-3-3-0-5-3-2-0h2-----| X8
  . . .   . .

Riff 2 x19

The first time it is played like this:

|-----------------------------|
|-----------------------------|
|-----------------------------|
|-----------------------------|
|3/5-5---3-*pause*------------|
|1/3-3-0-1--------------------|
     . .

Riff 1 X8

Riff 3

|-----------------------------|
|-----------------------------|
|-----------------------------|
|-----------------------------|
|6---5---6--------------------|
|4p0-3p0-4p0-0-0--------------| X9
             . .
Riff 2 X2

Riff 1 X8

Riff 3 X9

End the last riff 3 with this:

|--------------|
|--------------|
|--------------|
|--------------|
|-5-*let ring*-|
|-3------------|

Riff 2 X16

End with:

|----|
|----|
|----|
|----|
|-2--|
|-0--|
Добавлено: 11.05.2016
Другие материалы по этой песне:
  • Аккорды и текст

Страница создана 11.05.2016
http://primanota.ru/cock-and-ball-torture/where-girls-learn-to-piss-on-command-chords.htm
Привет, Гость.
Предлагаем пройти революционный курс по гитаре.
Подарок от PrimaNota.Ru, забирай!