PrimaNota.ru - самый крупный в мире бесплатный архив песенных текстов, аккордов, табулатур и нот


Cock And Ball Torture - Poontang Clan - таба, видео

Регистрация Запомнить меня
Войти через:  Facebook Google Twitter Vk Yandex Mail.ru

Cock And Ball Torture - Poontang Clan - таба, видео

Печатать
Просмотров: 220
Уроки эстрадного вокала в Санкт-Петербурге
Cock And Ball Torture
Barefoot And Hungry
Poontang Clan

Copyright (c)  Lofty Storm Records 2001
Version 1.1 - 23.8.2009

Transcribed By: Yaniv Dekel
Email:          lickywebster@yahoo.com


.  - palm mute           /  - slide up to
\  - slide down to       ~  - vibrato
h  - hammer on           b  - Bend
p  - pull off            Suffixes for bend
t  - tap                 f  - full bend    h - half bend
ph - pinched harmonic    q  - quarter bend t - tap bend
*  - see comment         ^  - Hold bend    r release bend
x  - Stuccatto           ~  - vibrato bend
,  - slight palm mute    () - ghost note, sustained note
"  - tremolo note        <> - Trill

Tuning is G standard


Riff A x14
|------------------------------------|
|------------------------------------|
|------------------------------------|
|---2---------2--------------2-------|
|-5-2-------1-2-5-6------3-5-2-3-6---|
|-3-0-------1-0-3-4------1-3-0-1-4---|
                               . .
Riff B1 x8         Riff B2 x4
|-----------------||-----------------|
|-----------------||-----------------|
|-----------------||-----------------|
|-----------------||-----------------|
|-5-8-6-7-2-3-5-2-||-5-8-6-7-2-3-5-2-|
|-5-8-6-5-0-1-3-0-||-5-8-6-5-0-1-3-0-|
                       . . . . . . .

Riff B1 x8
Riff A  x

Passage x1
|L
|-----------------------------------------------------------------|
|-----------------------------------------------------------------|
|-----------------------------------------------------------------|
|-----------------------------------------------------------------|
|-3---2---5---2---2---3---3-2-1---3---2---5---2---2---3---3-2-1---|
|-1---0---3---0---0---1---3-2-1---1---0---3---0---0---1---3-2-1---|
| .   .       .   .   .   . . .   .   .       .   .   .   . . .
|R
|-----------------------------------------------------------------|
|-----------------------------------------------------------------|
|-----------------------------------------------------------------|
|-----------------------------------------------------------------|
|-3-----------------------3-2-1---3-------------------3---3-2-1---|
|-1-----------------------3-2-1---1-------------------1---3-2-1---|
  .                       . . .   .                   .   . . .
Riff C1 x4                        Riff C2 x2
|--------------------------------||---------------------------------|
|--------------------------------||---------------------------------|
|--------------------------------||---------------------------------|
|--------------------------------||---------------------------------|
|-3---2---5---2---2---3---3-2-1--||-3---2---5---2---2---3---3-2-1---|
|-1---0---3---0---0---1---3-2-1--||-1---0---3---0---0---1---3-2-1---|
  .   .       .   .   .   . . .

Riff C1 x4
Riff B1 x8
Riff B2 x4
Riff B1 x8

Riff A  x2
Riff C1 x8

End x1
|-----------|
|-----------|
|-----------|
|-----------|
|-3-2-------|
|-1-0-------|
  .


END
Добавлено: 13.07.2012
Другие материалы по этой песне:

Страница создана 13.07.2012
http://primanota.ru/cock-and-ball-torture/poontang-clan-chords.htm
Привет, Гость.
Предлагаем пройти революционный курс по гитаре.
Подарок от PrimaNota.Ru, забирай!