PrimaNota.ru - самый крупный в мире бесплатный архив песенных текстов, аккордов, табулатур и нот


Cock And Ball Torture - Koala Cunt - таба, видео

Регистрация Запомнить меня
Войти через:  Facebook Google Twitter Vk Yandex Mail.ru

Cock And Ball Torture - Koala Cunt - таба, видео

Печатать
Просмотров: 203
Cock And Ball Torture
Opus(sy) VI
Koala Cunt

Copyright (c)  Shredded Records 2000
Version 1.2 - 7.12.2006

Transcribed By: Yaniv Dekel
Email:          lickywebster@yahoo.com


.  - palm mute           /  - slide up to
\  - slide down to       ~  - vibrato
h  - hammer on           b  - Bend
p  - pull off            Suffixes for bend
t  - tap                 f  - full bend    h - half bend
ph - pinched harmonic    q  - quarter bend t - tap bend
*  - see comment         ^  - Hold bend    r release bend
x  - Stuccatto           ~  - vibrato bend
,  - slight palm mute    () - ghost note, sustained note
"  - tremolo note        <> - Trill

Tuning is B

Intro
|---------------------------------|
|---------------------------------|
|---------------------------------|
|---------------------------------|
|-3-2-0-5-2-0-3-2-0-5-2-0-544-3---|
|-3-2-0-3-2-0-3-2-0-3-2-0-322-1---|
  . . . . . . . . . . . . ...

Riff A x4                 1         2
|-------------------------|---------|---------|
|-------------------------|---------|---------|
|-------------------------|---------|---------|
|-------------------------|---------|---------|
|-3-2-0-5-2-0-3-2-0-5-2-0-|-5-4-3---|-544-3---|
|-3-2-0-3-2-0-3-2-0-3-2-0-|-3-2-1---|-322-1---|
  . . . . . . . . . . . .   . .       ...

Riff B x6
|-------------------|
|-------------------|
|-------------------|
|-------------------|
|-3/4---4---3---2---|
|-3/4---2---1---0---|

Riff C1 x4                                         1-3       4
|-------------------------------------------------|---------|---------|
|-------------------------------------------------|---------|---------|
|-------------------------------------------------|---------|---------|
|-------------------------------------------------|-*Break*-|---------|
|-2-4-2---4/5-4/5-2-4-2---4/5-4/5-2-4-2---4/5-4/5-|---------|-544-3---|
|-0-4-2---2/3-2/3-0-4-2---2/3-2/3-0-4-2---2/3-2/3-|---------|-322-1---|
                                                              ...

Riff A x4

Riff C2 x4
|------------------------------------------------------------------|
|------------------------------------------------------------------|
|------------------------------------------------------------------|
|------------------------------------------------------------------|
|-2-4-2---4/5-4/5-2-4-2---4/5-4/5-2-4-2---4/5-4/5-2-4-2---4/5-4/5--|
|-0-4-2---2/3-2/3-0-4-2---2/3-2/3-0-4-2---2/3-2/3-0-4-2---2/3-2/3--|

Riff B  x6
Riff C1 x4
Riff A  x2

End with
|---------|
|---------|
|---------|
|---------|
|-544-3---|
|-322-1---|
  ...

Done
Добавлено: 22.02.2012
Другие материалы по этой песне:
  • Аккорды и текст

Страница создана 22.02.2012
http://primanota.ru/cock-and-ball-torture/koala-cunt-chords.htm
Привет, Гость.
Предлагаем пройти революционный курс по гитаре.
Подарок от PrimaNota.Ru, забирай!