PrimaNota.ru - самый крупный в мире бесплатный архив песенных текстов, аккордов, табулатур и нот


Cock And Ball Torture - Candy Teen Pussy Pleasers - таба, видео

Регистрация Запомнить меня
Войти через:  Facebook Google Twitter Vk Yandex Mail.ru

Cock And Ball Torture - Candy Teen Pussy Pleasers - таба, видео

Печатать
Просмотров: 158
Cock And Ball Torture
Opus(sy) VI
Candy Teen Pussy Pleasers

Copyright (c)  Shredded Records 2000
Version 1.1 - 23.8.2009

Transcribed By: Yaniv Dekel
Email:          lickywebster@yahoo.com


.  - palm mute           /  - slide up to
\  - slide down to       ~  - vibrato
h  - hammer on           b  - Bend
p  - pull off            Suffixes for bend
t  - tap                 f  - full bend    h - half bend
ph - pinched harmonic    q  - quarter bend t - tap bend
*  - see comment         ^  - Hold bend    r release bend
x  - Stuccatto           ~  - vibrato bend
,  - slight palm mute    () - ghost note, sustained note
"  - tremolo note        <> - Trill

Tuning is B standard


Riff A x5
|-----------------------------------|
|-----------------------------------|
|-----------------------------------|
|-----------------------------------|
|-4---3---3---3-2-3---2---2---2-1---|
|-4-0-3-0-3-0-3-2-3-0-2-0-2-0-2-1---|
    .   .   .       .   .   .

Riff B1 x8         Riff B2 x4
|-----------------||-----------------|
|-----------------||-----------------|
|-----------------||-----------------|
|-----------------||-----------------|
|-5-8---6-8-9-8---||-5-8---6-8-9-8---|
|-5-6-0-4-6-7-6-0-||-5-6-0-4-6-7-6-0-|
                       . .   . . . .
Riff C x4
|-----------------------------|
|-----------------------------|
|-----------------------------|
|-----------------------------|
|-4---3-----3-3-3---2-----2-1-|
|-4---3-----3-3-3---2-----2-1-|
            . .           . .

Riff B1 x8
Riff A  x5
Riff B2 x4
Riff C  x4

End x1
|------|
|------|
|------|
|------|
|-2----|
|-0----|


END
Добавлено: 20.06.2012
Другие материалы по этой песне:
  • Аккорды и текст

Страница создана 20.06.2012
http://primanota.ru/cock-and-ball-torture/candy-teen-pussy-pleasers-chords.htm
Привет, Гость.
Предлагаем пройти революционный курс по гитаре.
Подарок от PrimaNota.Ru, забирай!