PrimaNota.ru - самый крупный в мире бесплатный архив песенных текстов, аккордов, табулатур и нот


Cock And Ball Torture - Aphrodisianus - таба, видео

Регистрация Запомнить меня
Войти через:  Facebook Google Twitter Vk Yandex Mail.ru

Cock And Ball Torture - Aphrodisianus - таба, видео

Печатать
Просмотров: 129
Cock And Ball Torture
Sadochismo
Aphrodisianus

Copyright (c)  Ablated Records 2002
Version 1.1 - 3.8.2010

Transcribed By: Yaniv Dekel
Email:          lickywebster@yahoo.com


.  - palm mute           /  - slide up to
\  - slide down to       ~  - vibrato
h  - hammer on           b  - Bend
p  - pull off            Suffixes for bend
t  - tap                 f  - full bend    h - half bend
ph - pinched harmonic    q  - quarter bend t - tap bend
*  - see comment         ^  - Hold bend    r release bend
x  - Stuccatto           ~  - vibrato bend
,  - slight palm mute    () - ghost note, sustained note
"  - tremolo note        <> - Trill

Tuning is A standard


Riff A x2
|-----------------------------------|
|-----------------------------------|
|-----------------------------------|
|-4/5-------------------------------|
|-2/3-2---------3-----2---1-3-1-0---|
|-----0---0-3-5-1---3-0---1-3-1-0---|
            . .     .     . . . .

Riff B x1
|-------------------|
|-------------------|
|-------------------|
|-------------------|
|-2-3-2-5-6-3-5-2---|
|-0-1-0-3-4-1-3-0---|
  . . . . . . . .

Riff A x2
Riff B x1

Riff C x4
|-----------------------------|
|-----------------------------|
|-----------------------------|
|-----------------------------|
|-3-2-4---3-2-----3-2-4---3---|
|-1-0-2---1-0-----1-0-2---1---|

Riff A x2
Riff B x1
Riff A x2
Riff B x1

Riff D x8
|--------------------------|
|--------------------------|
|--------------------------|
|--------------------------|
|-3--5--2-----2--5--6\-3---|
|-1--3--0-----0--3--4\-1---|
  .  .  .     .  .  .  .

Riff C x4
Riff A x2
Riff B x1
Riff A x2
Riff B x5


END
Добавлено: 19.05.2012
Другие материалы по этой песне:

Страница создана 29.02.2012
http://primanota.ru/cock-and-ball-torture/aphrodisianus-chords.htm
Привет, Гость.
Предлагаем пройти революционный курс по гитаре.
Подарок от PrimaNota.Ru, забирай!