PrimaNota.ru - самый крупный в мире бесплатный архив песенных текстов, аккордов, табулатур и нот


Cobra Starship - The Scene Is Dead Long Live The Scene - аккорды и текст, видео

Регистрация Запомнить меня
Войти через:  Facebook Google Twitter Vk Yandex Mail.ru

Cobra Starship - The Scene Is Dead Long Live The Scene - аккорды и текст, видео

Печатать
Просмотров: 111
The Scene Is Dead Long Live The Scene
Cobra Starship
This is my favourite song by Cobra Starship, and its easy to play, just 4 Chords, E, F#,
B, Ab I also posted my cover of this song to my profile, so if you want, you can listen 
to what it sounds like. Thanks and please rate.

   E      F#     B      Ab
e|-0------2------2------4-------------|
B|-0------2------4------4-------------|
G|-1------3------4------5-------------|
D|-2------4------4------6-------------|
A|-2------4------2------6-------------|
E|-0------2------2------4-------------|

Heres a tab from 0:00 - 0:27 , then it goes to strumming

     Ab                          E
e|---------------------------------------------------------|
B|---------------------------------------------------------|
G|---------------------------------------------------------|
D|---6-6----6-6----6-6----6-6----2-2----2-2----2-2----2-2--| x3
A|---6-6----6-6----6-6----6-6----2-2----2-2----2-2----2-2--|
E|-4-4-4--4-4-4--4-4-4--4-4-4--0-0-0--0-0-0--0-0-0--0-0-0--|


VERSE

Ab
I'm not playin' this game no more
E
I'm out of medicine, so call the medics.
Ab
You're all as dumb as you were before
E
Don't ask me questions; I won't explain it.
Ab
It should be fun but it's getting old.
E
I take my medicine,
                 B
be your favorite man.

You think you understand but you don't.
Ab
You got no idea at all.
B
And in between the sentence,
          Ab
there's still assemblence,

intelligently screwed.

CHORUS

E      F#
Oh yeah, its alright,
B
'cause I got a pretty face

I guess that I could sing alright.
E      F#
Oh yeah, its alright
B
I could love you like a sailor,

I could make you dance all night.

VERSE 2

B
Maybe you'll understand when I'm gone,
Ab
that you had no idea at all.
B
But in this very second,
  Ab
I never mentioned

In dreams I keep from you.

CHORUS 2

E      F#
Oh yeah, its alright,
B
'cause I got a pretty face

I guess that I could sing alright.
E      F#
Oh yeah, its alright
B
I could love you like a sailor,

I could make you dance all night.
E      F#
Oh yeah, its alright,
B
'cause I got a pretty face

I guess that I could sing alright.
E     F#                Ab, E (into 3rd verse)
I can be your favorite man.

VERSE 3

It goes back to this in the 3rd verse combined with Ab and E chords
e|---------------------------------------------------------|
B|---------------------------------------------------------|
G|---------------------------------------------------------|
D|---6-6----6-6----6-6----6-6----2-2----2-2----2-2----2-2--|
A|---6-6----6-6----6-6----6-6----2-2----2-2----2-2----2-2--|
E|-4-4-4--4-4-4--4-4-4--4-4-4--0-0-0--0-0-0--0-0-0--0-0-0--|


Ab
Don't mean to sound like a rotten boy.
E
For all my blessings, I'm surely grateful.
Ab
'Cause I'm the dream you've been waiting for.
E
I always dreamnt that I'd be your favorite...

CHORUS 3

E       F#
Oh yeah, its alright,
B
'cause I got a pretty face

I guess that I could sing alright.
E       F#
Oh yeah, its alright
B
I could love you like a sailor,

I could make you dance all night.
E       F#
Oh yeah, its alright,
B
I got a pretty face

I guess that I could sing alright.
E     F#                B (hold)
I can be your favorite man.
Добавлено: 25.05.2012
Другие материалы по этой песне:
  • Аккорды и текст

Страница создана 25.05.2012
http://primanota.ru/cobra-starship/the-scene-is-dead-long-live-the-scene-chords.htm
Привет, Гость.
Предлагаем пройти революционный курс по гитаре.
Подарок от PrimaNota.Ru, забирай!