PrimaNota.ru - самый крупный в мире бесплатный архив песенных текстов, аккордов, табулатур и нот


Cobra Starship - The City Is At War - аккорды и текст, таба, бас-таба, видео

Регистрация Запомнить меня
Войти через:  Facebook Google Twitter Vk Yandex Mail.ru

Cobra Starship - The City Is At War - аккорды и текст, таба, бас-таба, видео

Печатать
Просмотров: 205
Уроки эстрадного вокала в Санкт-Петербурге
The City Is At War
Cobra Starship
Music Written By Cobra Starship
Tabbed by Dylan Freeman

I'm not sure about the lyrics cuz i just copied and pasted them from a website but 
impretty sure the chords are right

Chords Used:

  Cm        B*7      Fm       Ab       G
|-8-----x----8----4----3-|
|-8-----6----9----4----3-|
|-8-----7----10---5----4-|
|-10----6----10---6----5-|
|-10----x----8----6----5-|
|-8-----7---------4----3-|

The Guitar riff in the verse goes like:

|--------------------------------------------------------------|
|--------------------------------------------------------------|
|--------------------------------------------------------------|
|--------------------------------------------------------------|
|-3--3-1-3-1-3-1-----1------------------1---1--3-3-1-3---1-3-1-|
|----------------3-3---3---3-3-2-1--1-1---1--1-----------------|

                 Cm                                B*7                   
The city is at war, playtime for the young and rich
  Fm                                                B*7
Ignore me if you see me, cause i just don't give a shit
     Cm                                    B*7
The city is at war, bless the young and rich
             Fm                               B*7
With their designer drugs and designer friends


(Synth Interlude)

                 Cm                                B*7
The city is at war, playtime for the young and rich
  Fm                                                B*7
Ignore me if you see me, cause i just don't give a shit
     Cm                                     B*7
The city is at war, bless the young and rich
        Fm                            B*7
With designer drugs and designer friends


(Little Interlude on Cm, just mess around on it with the octaves or something)

 
Here's how it goes, it's about who you know                                       
Добавлено: 29.04.2012
Другие материалы по этой песне:
  • Аккорды и текст

Страница создана 04.04.2012
http://primanota.ru/cobra-starship/the-city-is-at-war-chords.htm
Привет, Гость.
Предлагаем пройти революционный курс по гитаре.
Подарок от PrimaNota.Ru, забирай!