PrimaNota.ru - самый крупный в мире бесплатный архив песенных текстов, аккордов, табулатур и нот


Cobra Starship - Smile For The Paparazzi - таба, видео

Регистрация Запомнить меня
Войти через:  Facebook Google Twitter Vk Yandex Mail.ru

Cobra Starship - Smile For The Paparazzi - таба, видео

Печатать
Просмотров: 229
Уроки эстрадного вокала в Санкт-Петербурге
Cobra Starship
Smile For the Paparazzi
¡Viva la Cobra!
Tuning: Standart

e|----------------------------------------------|
B|----------------------------------------------|
G|----------------------------------------------|
D|------------4-2--2-----------------2-4-2------|
A|--------2-4--------4-2----2-4-2----------4-2--|
E|--2-4-5-----------------5-------5-------------|

e|-----------------------------------|
B|-----------------------------------|
G|--------2--------------------------|
D|----2-4---4---------------4--------|
A|--4----------4-------4--4---4-2-0--|
E|---------------2-4-5---------------|

e|----------------------------|
B|----------------------------|
G|----------------------------|
D|----------------------------|
A|--0---0--0--0--2-4-0--------|
E|-----2--4--5---------2-0-2--|

e|----------------------------------------------|
B|----------------------------------------------|
G|----------------------------------------------|
D|------------4-2--2-----------------2-4-2------|
A|--------2-4--------4-2----2-4-2----------4-2--|
E|--2-4-5-----------------5-------5-------------|

e|-----------------------------------|
B|-----------------------------------|
G|--------2--------------------------|
D|----2-4---4---------------4--------|
A|--4----------4-------4--4---4-2-0--|
E|---------------2-4-5---------------|

e|----------------------------|
B|----------------------------|
G|----------------------------|
D|----------------------------|
A|--0---0--0--0--2-4-0--------|
E|-----2--4--5---------2-0-2--|
Добавлено: 18.06.2012
Другие материалы по этой песне:
  • Аккорды и текст

Страница создана 17.04.2012
http://primanota.ru/cobra-starship/smile-for-the-paparazzi-chords.htm
Привет, Гость.
Предлагаем пройти революционный курс по гитаре.
Подарок от PrimaNota.Ru, забирай!