PrimaNota.ru - самый крупный в мире бесплатный архив песенных текстов, аккордов, табулатур и нот


Cobra Starship - Pop-punk Is Sooooo 05 - текст песни, таба, видео

Регистрация Запомнить меня
Войти через:  Facebook Google Twitter Vk Yandex Mail.ru

Cobra Starship - Pop-punk Is Sooooo 05 - текст песни, таба, видео

Печатать
Просмотров: 134
Уроки эстрадного вокала в Санкт-Петербурге
-------------------------------------------------------------------------------
                            POP PUNK IS SOOOOO '05 - Cobra Starship
-------------------------------------------------------------------------------
Tabbed by: alice
Email: foldingpie@gmail.com

Tuning: Standard


Intro (0:00)-
e|---------------------------------------------------------------------------|
B|---------------------------------------------------------------------------|
G|-3-3-3---10-7-7-7-x-x-x----------------------------------------------------|
D|-3-3-3---10-7-7-7-x-x-x-5-5-5-x-x-x-5-5-5-x-x-x----------------------------|
A|-1-1-1---8--5-5-5-x-x-x-5-5-5-x-x-x-5-5-5-x-x-x----------------------------|
E|------------------------3-3-3-x-x-x-3-3-3-x-x-x----------------------------|

e|---------------------------------------------------------------------------|
B|---------------------------------------------------------------------------|
G|-3-3-3---10-7-7-7-x-x-x----------------------------------------------------|
D|-3-3-3---10-7-7-7-x-x-x-5-5-5-x-x-x-3-3-3-x-x-x----------------------------|
A|-1-1-1---8--5-5-5-x-x-x-5-5-5-x-x-x-3-3-3-x-x-x----------------------------|
E|------------------------3-3-3-x-x-x-1-1-1-x-x-x----------------------------|   x2


Verse (0:27) - 
e|---------------------------------------------------------------------------|
B|---------------------------------------------------------------------------|
G|-3---3-3-3-7---7-7-7-75-5---5555-------------------------------------------|
D|-3---3-3-3-7---7-7-7-75-5---5555-------------------------------------------|
A|-1---1-1-1-5---5-5-5-53-3---3333-------------------------------------------|
E|---------------------------------------------------------------------------|

Pre-chorus (0:38) -
e|--------15~--17~--13~----------------|


Chorus (0:40) -
e|---------------------------------------------------------------------------|
B|---------------------------------------------------------------------------|
G|-3-3-3-3-3-3---7-7-7-7-7-7-------------------------------------------------|
D|-3-3-3-3-3-3---7-7-7-7-7-7---5-5-5-5-5-5-5-5-5-5-5-5-----------------------|
A|-1-1-1-1-1-1---5-5-5-5-5-5---5-5-5-5-5-5-5-5-5-5-5-5-----------------------|
E|-----------------------------3-3-3-3-3-3-3-3-3-3-3-3-----------------------| x2
(0:50)
e|-------------------------------------------|
B|-------------------------------------------|
G|-3-33---1010x-7-77-xx----------------------|
D|-3-33---1010x-7-77-xx-5-55-xxx-3-33--------|
A|-1-11---8-8-x-5-55-xx-5-55-xxx-3-33--------|
E|----------------------3-33-xxx-1-11--------|    x2


Verse 2 (1:12) -
e|---------------------------------------------------------------------------|
B|---------------------------------------------------------------------------|
G|-3---3-3-3-7---7-7-7-75-5---55555555---------------------------------------|
D|-3---3-3-3-7---7-7-7-75-5---55555555---------------------------------------|
A|-1---1-1-1-5---5-5-5-53-3---33333333---------------------------------------|
E|---------------------------------------------------------------------------|


Pre-chorus (1:23) -
e|--------15~--17~--13~----------------|


Chorus (1:25) -
e|---------------------------------------------------------------------------|
B|---------------------------------------------------------------------------|
G|-3-3-3-3-3-3---7-7-7-7-7-7-------------------------------------------------|
D|-3-3-3-3-3-3---7-7-7-7-7-7---5-5-5-5-5-5-5-5-5-5-5-5-----------------------|
A|-1-1-1-1-1-1---5-5-5-5-5-5---5-5-5-5-5-5-5-5-5-5-5-5-----------------------|
E|-----------------------------3-3-3-3-3-3-3-3-3-3-3-3-----------------------| x2
(1:38)
e|-----------------------------------------------------------|
B|-----------------------------------------------------------|
G|---------------------3-33---1010x-7-77-xx------------------|
D|--xxx-55---3-3--33---3-33---1010x-7-77-xx-5-55-xxx-3-33----|
A|--xxx-55---3-3--33---1-11---8-8-x-5-55-xx-5-55-xxx-3-33----|
E|--xxx-33---1-1--11------------------------3-33-xxx-1-11----|   

e|-------------------------------------------|
B|-------------------------------------------|
G|-3-33---1010x-7-77-xx----------------------|
D|-3-33---1010x-7-77-xx-5-55-xxx-3-33--------|
A|-1-11---8-8-x-5-55-xx-5-55-xxx-3-33--------|
E|----------------------3-33-xxx-1-11--------|   x2

Bridge (1:57) -
e|---------------------------------------------------------------------------|
B|---------------------------------------------------------------------------|
G|-8-8-8-8-8-8-8-8-8-8-8-8---------------------------------------------------|
D|-8-8-8-8-8-8-8-8-8-8-8-8---------------------------------------------------|
A|-6-6-6-6-6-6-6-6-6-6-6-6---------------------------------------------------|
E|---------------------------------------------------------------------------|
(2:21) piano part -
e|---------------------------------------------------------------------------|
B|---------------------------------------8-----------------------------------|
G|---7----7----7----7-7--7----7----5-7-5-7-----------------------------------|
D|---8----7----5----5-5--8----7----------8-----------------------------------|
A|---------------------------------------------------------------------------|
E|---------------------------------------------------------------------------|

Chorus (2:35) -
e|---------------------------------------------------------------------------|
B|---------------------------------------------------------------------------|
G|-3-3-3-3-3-3---7-7-7-7-7-7-------------------------------------------------|
D|-3-3-3-3-3-3---7-7-7-7-7-7---5-5-5-5-5-5-5-5-5-5-5-5-----------------------|
A|-1-1-1-1-1-1---5-5-5-5-5-5---5-5-5-5-5-5-5-5-5-5-5-5-----------------------|
E|-----------------------------3-3-3-3-3-3-3-3-3-3-3-3-----------------------| x2


Outro (2:47)
e|---------------------------------------------|
B|---------------------------------------------|
G|-3-33---1010x-7-77-xx------------------------|
D|-3-33---1010x-7-77-xx-5-55-xxx-3-33-(xxx)----|
A|-1-11---8-8-x-5-55-xx-5-55-xxx-3-33-(xxx)----|
E|----------------------3-33-xxx-1-11-(xxx)----|   x2   (second time only)
 




awesome song, this.
Добавлено: 17.03.2012
Другие материалы по этой песне:
  • Аккорды и текст

Страница создана 17.03.2012
http://primanota.ru/cobra-starship/pop-punk-is-sooooo-05-chords.htm
Привет, Гость.
Предлагаем пройти революционный курс по гитаре.
Подарок от PrimaNota.Ru, забирай!