PrimaNota.ru - самый крупный в мире бесплатный архив песенных текстов, аккордов, табулатур и нот


Cobra Starship - Its Amateur Night At The Apollo Creed - таба, видео

Регистрация Запомнить меня
Войти через:  Facebook Google Twitter Vk Yandex Mail.ru

Cobra Starship - Its Amateur Night At The Apollo Creed - таба, видео

Печатать
Просмотров: 105
----------------------------------------------------------------------------
          IT'S AMATEUR NIGHT AT THE APOLLO CREED! - COBRA STARSHIP
----------------------------------------------------------------------------
Tabbed by: Nic Foley (Double-Helix)
Tuning: Standard (EADGBe)


Verse:             x2                                                    x1
e|-------------------|-----------------------------------------------------|
B|-------------------|-----------------------------------------------------|
G|-------------------|-----------------------------------------------------|
D|----------------5--|------------------------9------------------------12\-|
A|-5-7777--5-7777----|-7-10101010--7-10101010---7-10101010--7-10101010-----|
E|-------------------|-----------------------------------------------------|
PM . ....  . ....      . ........  . ........   . ........  . ........

Chorus:
guitar one:      x3                                         x1
e|-----------------|------------------------------------------|
B|-10/12\10--------|-10/12\10------------------10/12\10-------|
G|----------12-9~--|----------12-9-9-9-9-9-9------------12-9~-|
D|-----------------|------------------------------------------|
A|-----------------|------------------------------------------|
E|-----------------|------------------------------------------|
guitar two:
e|------------------------------------------------------------|
B|------------------------------------------------------------|
G|-12--7--9~------4--5--7~------------------------------------|
D|-12--7--9~------4--5--7~------------------------------------|
A|-10--5--7~------2--3--5~------------------------------------|
E|------------------------------------------------------------|
(Then back to the verse riff, starting with the second part of it
for the "speed it up, speed it up" part of the chorus)

Song Order:
  Verse 1
  Chorus
  Verse 2
  Chorus
  Bridge (bass only)
  Chorus

Lyrics:
  Here's a new idea, I've got news for you:
  There's no free rides tonight
  If you're strapped for cash, I've got a job for you:
  My boots need shining son
  Sit down, shut up
  Oh, where do we begin?
  The streets are full of anything you want
  The city lies inviting you right in
  Don't be afraid, don't be afraid

  You can put your hands up
  I love (love) girls with Brooklyn haircuts
  I'll be your fanclub
  Step, step - you're too slow
  Speed it up, Speed it up
  Speed it up, Speed it up
  Speed it up

  Here's your new position:
  There's no need for you to wait in line tonight (at) 
  Misshapes. What's up? Where's your dancing shoes?
  The kiddies get it on
  Sit down, shut up
  Oh, where do we begin?
  The streets are full of anything you want
  The city lies inviting you right in
  Don't be afraid, don't be afraid

  You can put your hands up
  I love (love) girls with Brooklyn haircuts
  I'll be your fanclub
  Step, step - you're too slow
  Speed it up, Speed it up
  Speed it up, Speed it up
  Speed it up!

  All you wanted, I got
  Never give it up
  Finish what you started
  Step, step - you're too slow
  Speed it up

  You can put your hands up
  I love (love) girls with Brooklyn haircuts
  I'll be your fanclub
  Step, step - you're too slow
  Speed it up, Speed it up
  Speed it up, Speed it up
  Speed it up.
Добавлено: 09.04.2012
Другие материалы по этой песне:
  • Аккорды и текст

Страница создана 09.04.2012
http://primanota.ru/cobra-starship/its-amateur-night-at-the-apollo-creed-chords.htm
Привет, Гость.
Предлагаем пройти революционный курс по гитаре.
Подарок от PrimaNota.Ru, забирай!