PrimaNota.ru - самый крупный в мире бесплатный архив песенных текстов, аккордов, табулатур и нот


Cobra Starship - I May Be Rude But Im The Truth - бас-таба, видео

Регистрация Запомнить меня
Войти через:  Facebook Google Twitter Vk Yandex Mail.ru

Cobra Starship - I May Be Rude But Im The Truth - бас-таба, видео

Печатать
Просмотров: 137
Уроки эстрадного вокала в Санкт-Петербурге
-------------------------------------------------------------------------------
			     COBRA STARSHIP - i may be rude but i'm the truth
-------------------------------------------------------------------------------

Tabbed By: Valerie L
e-mail: queefist@yahoo.com
Tuning: standard

intro
G|---------------------------------------|
D|--11-----------11--9--7------9--9--9---|
A|---------------------------------------|
E|9----9/-979-99---9---5--5-557-7--7-----|

verse "they all compete for your love."
G|----------------------------------|
D|-----------11--9---7------9--9--9-|
A|----------------------------------|
E|9-9-979-99---9---5---55-7--7--7---|x3

pre-chorus "if you don't like what i say.."
G|-----------------------------------------------|
D|----------11--9---7------9--9--9---------------|
A|-----------------------------------------------|
E|9-9-979-99--9---5--5-57----7--7--7--7---99999/-|

chorus "i never need your sympathy."
G|--------------------------------------------------------------------------------------|
D|--------------------------------------------------------------------------------------|
A|-----------------------------------------------------------------------------00000000-|
E|0000000000000000-4444444444444444-0000000000000000-4444444445555555-22222222----------|

G|----------------------------------------------------|
D|----------------------------------------------------|
A|---------22222222----------22222222-4-4-4-4-4-4-4-4-|
E|00000000----------22222222--------------------------|

intro x1

verse "i'll let you watch me for now."
G|----------------------------------|
D|-----------11--9---7------9--9--9-|
A|----------------------------------|
E|9-9-979-99---9---5---55-7--7--7---|x3


pre-chorus "what you see is what you get baby.."
G|-----------------------------------------------|
D|----------11--9---7------9--9--9---------------|
A|-----------------------------------------------|
E|9-9-979-99--9---5--5-57----7--7--7--7---99999/-|

chorus x1

bridge
G|-------------------|    |----------------|
D|-------------------|    |----------------|
A|0~---2~---4~-------|    |0~--2~--4-4-4-4-|
E|---------------0~--| x3 |----------------|

chorus "i never need your sympathy."
G|--------------------------------------------------------------------------------------|
D|--------------------------------------------------------------------------------------|
A|-----------------------------------------------------------------------------00000000-|
E|0000000000000000-4444444444444444-0000000000000000-4444444445555555-22222222----------|

G|---------------------------------------------------------------------|
D|---------------------------------------------------------------------|
A|---------22222222----------22222222---------22222222-4-4-4-4-4-4-4-4-|
E|00000000----------22222222---------22222222--------------------------|
Добавлено: 08.07.2012
Другие материалы по этой песне:
  • Аккорды и текст

Страница создана 08.07.2012
http://primanota.ru/cobra-starship/i-may-be-rude-but-im-the-truth-chords.htm
Привет, Гость.
Предлагаем пройти революционный курс по гитаре.
Подарок от PrimaNota.Ru, забирай!