PrimaNota.ru - самый крупный в мире бесплатный архив песенных текстов, аккордов, табулатур и нот


Cobra Skulls - One Day Ill Never - таба, видео

Регистрация Запомнить меня
Войти через:  Facebook Google Twitter Vk Yandex Mail.ru

Cobra Skulls - One Day Ill Never - таба, видео

Печатать
Просмотров: 88
---------------------------------
Cobra Skulls - One Day I'll Never
---------------------------------

Tabbed by: Blinkaholic
Tuning: Standard
Email: josh.americanidiot@gmail.com

Tabbed entirely by ear.

Intro
|-------------------------------------------------------------------|
|-------------------------------------1-------1---------------5-----|
|-----0-------0---------------------2---2---2---2-----2-----4---5p4-|
|---2---2---2---2-----2-------2---3-------3---------3---3-5---------|
|-3-------3---------3---3---3---3-----------------5-----------------|
|-----------------5-------5-----------------------------------------|

Verse 1
|-------------------------------------------------------------------|
|-------------------------------------1-------1---------------5-----|
|-----0-------0---------------------2---2---2---2-----2-----4---5p4-|
|---2---2---2---2-----2-------2---3-------3---------3---3-5---------|
|-3-------3---------3---3---3---3-----------------5-----------------|
|-----------------5-------5-----------------------------------------|

|---------------------------------------------------------------------------|
|-------------------------------------1-------1---------------5-------------|
|-----0-------0---------------------2---2---2---2-----2-----4---5p4---------|
|---2---2---2---2-----2-------2---3-------3---------3---3-5---------5-------|
|-3-------3---------3---3---3---3-----------------5---------------------0-2-|
|-----------------5-------5-------------------------------------------3-----|

Chorus
|----------------------|-------------|
|----------------------|-------------|
|----------------------|------0------|
|----------------------|--2h4---[x8]-|
|---3---2---0---2-[x3]-|3------------|
|-5---3---1---3--------|-------------|

Verse 2
|-------------------------------------------------------------------------|
|-------------------------------------1-------1---------------5-----5-3-0-|
|-----0-------0---------------------2---2---2---2-----2-----4---4---------|
|---2---2---2---2-----2-------2---3-------3---------3---3-5-------5-------|
|-3-------3---------3---3---3---3-----------------5-----------------------|
|-----------------5-------5-----------------------------------------------|

|---------------------------------------------------------------------------|
|-------------------------------------1-------1---------------5-------------|
|-----0-------0---------------------2---2---2---2-----2-----4---5p4---------|
|---2---2---2---2-----2-------2---3-------3---------3---3-5---------5-------|
|-3-------3---------3---3---3---3-----------------5---------------------0-2-|
|-----------------5-------5-------------------------------------------3-----|

Chorus
|----------------------|-------------|
|----------------------|-------------|
|----------------------|------0------|
|----------------------|--2h4---[x8]-|
|---3---2---0---2-[x3]-|3------------|
|-5---3---1---3--------|-------------|

Solo (Piano)
|-------------------------------------------------------------------|
|-------------------------------------1-------1---------------5-----|
|-----0-------0---------------------2---2---2---2-----2-----4---5p4-|
|---2---2---2---2-----2-------2---3-------3---------3---3-5---------|
|-3-------3---------3---3---3---3-----------------5-----------------|
|-----------------5-------5-----------------------------------------|

|-------------------------------------------------------------------------|
|-------------------------------------1-------1---------------5-----5-3-0-|
|-----0-------0---------------------2---2---2---2-----2-----4---4---------|
|---2---2---2---2-----2-------2---3-------3---------3---3-5-------5-------|
|-3-------3---------3---3---3---3-----------------5-----------------------|
|-----------------5-------5-----------------------------------------------|

(Guitar)
|---------------------------------------------------------1-0-----------------------------------|
|------555-5-5-3---------------------------------------3-------3--1---1-3-/5--3-/5--5--3--5--3--|
|-/5-------------5-2-5-2-----------5---------2--5--2-5--------------2---------------------------|
|--------------------------0h3/5-7---7-5---3----------------------------------------------------|
|----------------------------------------7------------------------------------------------------|
|-----------------------------------------------------------------------------------------------|

|--------------------------------------------------------1-0----------------------|
|-----------------------------------------------------3-------3--1---1-3-/5--3-/5-|
|-/5-----------5---5--------------5---------2--5--2-5--------------2--------------|
|------0h3/5-7---7----7---0h3/5-7---7-5---3---------------------------------------|
|---------------------------------------7-----------------------------------------|
|---------------------------------------------------------------------------------|

--------------|-------|
-5--3--5--3---|-------|
--------------|-------|
--------------|-------|
--------------|---0-2-|
--------------|-3-----|

Chorus
|----------------------|-------------|
|----------------------|-------------|
|----------------------|------0------|
|----------------------|--2h4---[x8]-|
|---3---2---0---2-[x5]-|3------------|
|-5---3---1---3--------|-------------|

END
Добавлено: 24.11.2013
Вам также может быть интересно:
Другие материалы по этой песне:
  • Аккорды и текст

Страница создана 24.11.2013
http://primanota.ru/cobra-skulls/one-day-ill-never-chords.htm
Привет, Гость.
Предлагаем пройти революционный курс по гитаре.
Подарок от PrimaNota.Ru, забирай!