PrimaNota.ru - самый крупный в мире бесплатный архив песенных текстов, аккордов, табулатур и нот


Cobra Skulls - Hot Sand - таба, видео

Регистрация Запомнить меня
Войти через:  Facebook Google Twitter Vk Yandex Mail.ru

Cobra Skulls - Hot Sand - таба, видео

Печатать
Просмотров: 102
                             HOT SAND - Cobra Skulls

Tabbed by: pdxpunk420
E-mail: 1stdraggsfan@gmail.com

Tuning: Standard (EADGBe)


Intro/Verse
e|-7777-7777-|   |-7777-7777-xxxxxx-| 
B|-8888-8888-|   |-8888-8888-xxxxxx-|
G|-9999-9999-|   |-9999-9999-xxxxxx-|
D|-9999-9999-|   |-9999-9999-xxxxxx-|
A|-7777-7777-|   |-7777-7777-xxxxxx-|
E|-----------|X8 |------------------|X3 and back to first part X3


Pre-Chorus
e|----------------|
B|-------7~-------|
G|-4~----7~----8~-|
D|-5~----7~----9~-|
A|-5~----5~----9~-|
E|-3~----------7~-|


Chorus
e|-----------------------------------------|
B|-----------------------------------------|
G|---5--------7--------5--------7-----4----|
D|---5-X16----7-X16----5-X16----7-X8--4-X8-|
A|---7--------5--------3--------5-----2----|
E|-----------------------------------------|

e|------------------------|
B|------------------------|
G|-9-----9-xx-------------|
D|-9-X8--9-xx-------------|
A|-7-----7-xx-9-xx-7-xx-5-|
E|------------7-xx-5-xx-3-|


Bridge 1
e|-----------|-12-------------------------------------------|
B|-----------|----12~------12----10-----------12----10------|
G|-----------|---------/12----12----12-9--/12----12----12-9-|
D|-BASS SOLO-|----------------------------------------------|
A|-----------|----------------------------------------------|
E|-----------|----------------------------------------------|
Those are 10's and 12's, not 0's, 1's, and 2's

e|-------------------------------|
B|----12----10-------------------|
G|-/12----12----12-7-------------|
D|-------------------------------|
A|--------------------\2-5-2-5-6-|
E|-------------------------------|


Verse
e|-7777-7777-|    
B|-8888-8888-|   
G|-9999-9999-|   
D|-9999-9999-|   
A|-7777-7777-|   
E|-----------|X5 


Pre-Chorus
e|----------------|
B|-------7~-------|
G|-4~----7~----8~-|
D|-5~----7~----9~-|
A|-5~----5~----9~-|
E|-3~----------7~-|


Chorus
e|-----------------------------------------|
B|-----------------------------------------|
G|---5--------7--------5--------7-----4----|
D|---5-X16----7-X16----5-X16----7-X8--4-X8-|
A|---7--------5--------3--------5-----2----|
E|-----------------------------------------|

e|------------------------|
B|------------------------|
G|-9-----9-xx-------------|
D|-9-X8--9-xx-------------|
A|-7-----7-xx-9-xx-7-xx-5-|
E|------------7-xx-5-xx-3-|


Bridge 2
e|--------------------------------------------------------------------------------|
B|--------------------------------------------------------------------------------|
G|-9-9----12----7-7---------7----9-----7-9-9----12----7-7---------12----97-xxxxxx-|
D|-9-9----12----7-7----9----7----99----7-9-9----12----7-7----9----12----97-xxxxxx-|
A|-7-7-xx-10-xx-5-5-xx-9-xx-5-xx-79-xx-5-7-7-xx-10-xx-5-5-xx-9----10-xx-75-xxxxxx-|
E|---------------------7----------7--------------------------7-xx-----------------|X2 
and then X2 w/o muted notes

e|-----------------------------------|
B|-----------------------------------|
G|-------------------------5-7-7-7-7-|
D|-9-9-9-9-97-9-9-9-9-97-9-5-7-7-7-7-|
A|-9-9-9-9-97-9-9-9-9-97-9-3-5-5-5-5-|
E|-7-7-7-7-75-7-7-7-7-75-7-----------|


Chorus
e|-----------------------------------------|
B|-----------------------------------------|
G|---5--------7--------5--------7-----4----|
D|---5-X16----7-X16----5-X16----7-X8--4-X8-|
A|---7--------5--------3--------5-----2----|
E|-----------------------------------------|

e|------------------------|
B|------------------------|
G|-9-----9-xx-------------|
D|-9-X8--9-xx-------------|
A|-7-----7-xx-9-xx-7-xx-5-|
E|------------7-xx-5-xx-3-|


Ending
e|---|
B|---|
G|---|
D|-2-|
A|-2-|
E|-0-|

************************************

| ~   hold note
| x   mute note
| X   amount of times played
| /   slide up
| \   slide down
 
************************************
Добавлено: 07.06.2013
Другие материалы по этой песне:
  • Аккорды и текст

Страница создана 07.06.2013
http://primanota.ru/cobra-skulls/hot-sand-chords.htm
Привет, Гость.
Предлагаем пройти революционный курс по гитаре.
Подарок от PrimaNota.Ru, забирай!