PrimaNota.ru - самый крупный в мире бесплатный архив песенных текстов, аккордов, табулатур и нот


Coasts - Wallow - таба, видео

Регистрация Запомнить меня
Войти через:  Facebook Google Twitter Vk Yandex Mail.ru

Coasts - Wallow - таба, видео

Печатать
Просмотров: 83
Уроки эстрадного вокала в Санкт-Петербурге
-------------------------------------------------------------------------------
                             Wallow - Coasts
-------------------------------------------------------------------------------
Tabbed by: Gaston_M


Tuning: Standard 

Key: F
Guitar 1 with reverb, and delay on chorus
Guitar 2 overdriven

Intro: 

e|---------------------------------------------------------------------------------|
B|---------------------------------------------------------------------------------|
G|---20-20--17-17-17---20-20--11-11-11----15-15--20-15-17-20---15-15--20-15-17-20--|x2
D|---------------------------------------------------------------------------------|
A|---------------------------------------------------------------------------------|
E|---------------------------------------------------------------------------------|



e|--------------18--16--16--------16-15------16-15-------|--ends-with-|
B|-21--18--18---------------16-16---------16----------x2-|----16------|
G|-------------------------------------------------------|------------|
D|-------------------------------------------------------|------------|
A|-------------------------------------------------------|------------|
E|-------------------------------------------------------|------------|


Verse: (I'm not sure about the 2nd chord)

e|-----------------------|
B|-----------------------|
G|---10---13-----8-------|
D|---10---15-----8-------|
A|---8----13-15--6-------|
E|-----------------------|


Chorus:

e|---------------20-18-----------20--18--------------------------------------|
B|--161616161616-------14-161616--------14-16--------------------------------|
G|---------------------------------------------------------------------------|
D|---------------------------------------------------------------------------|
A|---------------------------------------------------------------------------|
E|---------------------------------------------------------------------------|


Outro Chords: (Guitar 2)

e|--------------------------------------------------|ends-with|
B|--------------------------------------------------|---------|
G|--------------------------------------------------|---------|
D|--11-11-11--13---8-8-8--6-3-3-3--6-3-3-3-/-13--x4-|--3------|
A|--11-11-11--13---8-8-8--6-3-3-3--6-3-3-3-/-13-----|--3------|
E|--9--9--9---11---6-6-6--4-1-1-1--4-1-1-1-/-11-----|--1------|

Добавлено: 25.12.2015
Другие материалы по этой песне:
  • Аккорды и текст

Страница создана 25.12.2015
http://primanota.ru/coasts/wallow-chords.htm
Привет, Гость.
Предлагаем пройти революционный курс по гитаре.
Подарок от PrimaNota.Ru, забирай!