PrimaNota.ru - самый крупный в мире бесплатный архив песенных текстов, аккордов, табулатур и нот


Coals - Wiosna - таба, видео

Регистрация Запомнить меня
Войти через:  Facebook Google Twitter Vk Yandex Mail.ru

Coals - Wiosna - таба, видео

Печатать
Просмотров: 238
Уроки эстрадного вокала в Санкт-Петербурге
-------------------------------------------------------------------------------
                             Coals - Wiosna
-------------------------------------------------------------------------------
Tabbed by: Rozmych
Capo on 3rd fret
Tuning: Standard

Chords:
       E A D G B e
Gsus2: 3 0 0 0 3 3
D/F# : 2 0 0 2 3 3
Csus2: x 3 0 0 3 3


Intro tab:
   Gsus2               D/F#                 Csus2
e|---------------------------------------------------------------------------|
B|--------3---------3---------3---------3---------3---------3----------------|
G|--------0---------0---------0---------0---------0---------0----------------|
D|--------------------------------------------0---------0--------------------|
A|---0---------0---------0----------0-------3---3-----3---3------------------|
E|-3---3-----3---3-----2---2------2---2--------------------------------------|



Strum: Gsus2  D/F#  Csus2


splecione kosmyki włosów
czubek nosa przy rogówce
ciało wtopione w klatkę
uszy wyłapujące słodkie szepty

a ja czekam i czekam na wiosnę
szukam znaków na gwiazdozbiorze
wirując w samotnym tańcu


Outro: = intro tab
Добавлено: 10.09.2015
Вам также может быть интересно:
Другие материалы по этой песне:
  • Аккорды и текст

Страница создана 10.09.2015
http://primanota.ru/coals/wiosna-chords.htm
Привет, Гость.
Предлагаем пройти революционный курс по гитаре.
Подарок от PrimaNota.Ru, забирай!