PrimaNota.ru - самый крупный в мире бесплатный архив песенных текстов, аккордов, табулатур и нот


Coal Chamber - Rivals - таба, видео

Регистрация Запомнить меня
Войти через:  Facebook Google Twitter Vk Yandex Mail.ru

Coal Chamber - Rivals - таба, видео

Печатать
Просмотров: 180
-----------------------------------------------------------------------------------------
|                                  COAL CHAMBER - RIVALS                                |
|                                   Album: Rivals (2015)                                |
-----------------------------------------------------------------------------------------
           If you have questions or corrections feel free to send me a message:
                        http://profile.ultimate-guitar.com/godspeedy/
                           https://www.facebook.com/Godspeedy14
                           
        Also, check out my Youtube channel: http://www.youtube.com/user/Godspeedy14

                *************************************************************
                * NOTE: If you need a playthrough, check out my cover here: *
                *        http://www.youtube.com/watch?v=9eUHhBtJRVY         *
                *************************************************************

                                  Tuning: 6 string AEADF#B 
                                                        
**************************************GUITAR NOTATIONS***********************************
*                                                                                       *
*                                | *   palm mute         |                              *
*                                | s   slide             |                              *
*                                | h   hammer-on         |                              *
*                                | x   Mute note         |                              *
*                                | ..  let ring          |                              *
*                                                                                       *
*****************************************************************************************

-----------------------------------------------------------------------------------------
|                                    INTRO (00:00-00:36)                                |
-----------------------------------------------------------------------------------------
                    *weird noise here. hit the strings on the headstock*
-----------------------------------------------------------------------------------------
|                                   VERSE (00:36-01:13)                                 |
-----------------------------------------------------------------------------------------

Guitar 1 (w/ clean and chorus)
    ..................................................................................................
 B|------------------------|------------------------|------------------------|------------------------|
F#|----5--------5--------5-|----5--------5--------5-|----5--------5--------5-|----5--------5--------5-|
 D|-------8--------8-------|-------8--------8-------|-------8--------8-------|-------8--------8-------|
 A|-0--------0--------0----|-0--------0--------0----|-6--------6--------6----|-6--------6--------6----|
 E|------------------------|------------------------|------------------------|------------------------|
 A|------------------------|------------------------|------------------------|------------------------|\
   ..................................................................................................   x2
 B|------------------------|------------------------|------------------------|------------------------|/
F#|----5--------5--------5-|----5--------5--------5-|----5--------5--------5-|----5--------5-----5----|
 D|-------8--------8-------|-------8--------8-------|-------8--------8-------|-------8--------8-----8-|
 A|-0--------0--------0----|-0--------0--------0----|-6--------6--------6----|-6--------6-------------|
 E|------------------------|------------------------|------------------------|------------------------|
 A|------------------------|------------------------|------------------------|------------------------|

-----------------------------------------------------------------------------------------
|                                 PRE-CHORUS (01:13-01:32)                              |
-----------------------------------------------------------------------------------------

Guitars 1 and 2 (w/ dist)

 B|-------------------------------|---------------------------------|
F#|-------------------------------|---------------------------------|
 D|-------7-7-7-7-7-7-7-7-7-7-7-7-|-7-7-7-7-7-7-7-7-7-7-7-7-7-7-7-7-|
 A|-------x-x-x-x-x-x-x-x-x-x-x-x-|-x-x-x-x-x-x-x-x-x-x-x-x-x-x-x-x-|\
 E|-------5-5-5-5-5-5-5-5-5-5-5-5-|-5-5-5-5-5-5-5-5-5-5-5-5-5-5-5-5-| \ 
 A|-0--0--------------------------|---------------------------------|  \
                                                                        x2
 B|-------------------------------|------------------------------------|/
F#|-------------------------------|------------------------------------|
 D|-------5-5-5-5-5-5-5-5-5-5-5-5-|-5-5-5-5-5-5-5-5-5s8-8-8-8s10-10-10-|
 A|-------x-x-x-x-x-x-x-x-x-x-x-x-|-x-x-x-x-x-x-x-x-x-x-x-x-x-x--x--x--|
 E|-------3-3-3-3-3-3-3-3-3-3-3-3-|-3-3-3-3-3-3-3-3-3s6-6-6-6s8--8--8--|
 A|-0--0--------------------------|------------------------------------|

-----------------------------------------------------------------------------------------
|                                    CHORUS (01:32-01:50)                               |
-----------------------------------------------------------------------------------------

Guitars 1 and 2 (w/ dist)

 B|-------------------------|----------------------------|
F#|-------------------------|----------------------------|
 D|-------------------------|----------------------------| x4
 A|---------1-----------1---|---------1-----------1h3-1--|
 E|---------1-----------1---|---------1-----------1h3-1--|
 A|-0-1-0-0-1---0-1-0-0-1---|-0-1-0-0-1---0-1-0-0-1h3-1--|
    * * * *     * * * *       * * * *     * * * *

-----------------------------------------------------------------------------------------
|                                   VERSE 2 (01:50-02:15)                               |
-----------------------------------------------------------------------------------------

Guitar 1 (w/ clean and chorus)
    ..................................................................................................
 B|------------------------|------------------------|------------------------|------------------------|
F#|----5--------5--------5-|----5--------5--------5-|----5--------5--------5-|----5--------5--------5-|
 D|-------8--------8-------|-------8--------8-------|-------8--------8-------|-------8--------8-------|
 A|-0--------0--------0----|-0--------0--------0----|-6--------6--------6----|-6--------6--------6----|
 E|------------------------|------------------------|------------------------|------------------------|
 A|------------------------|------------------------|------------------------|------------------------|
   ...................................................................................................     
 B|------------------------|------------------------|------------------------|------------------------|
F#|----5--------5--------5-|----5--------5--------5-|----5--------5--------5-|----5--------5-----5----|
 D|-------8--------8-------|-------8--------8-------|-------8--------8-------|-------8--------8-----8-|
 A|-0--------0--------0----|-0--------0--------0----|-6--------6--------6----|-6--------6-------------|
 E|------------------------|------------------------|------------------------|------------------------|
 A|------------------------|------------------------|------------------------|------------------------|
   ................................................
 B|------------------------|------------------------|
F#|----5--------5--------5-|----5--------5--------5-|
 D|-------8--------8-------|-------8--------8-------|
 A|-0--------0--------0----|-0--------0--------0----|
 E|------------------------|------------------------|
 A|------------------------|------------------------|

-----------------------------------------------------------------------------------------
|                                 PRE-CHORUS 2 (02:15-02:33)                            |
-----------------------------------------------------------------------------------------
                                     same as PRE-CHORUS
-----------------------------------------------------------------------------------------
|                                   CHORUS 2 (02:33-02:51)                              |
-----------------------------------------------------------------------------------------
                                        same as CHORUS
-----------------------------------------------------------------------------------------
|                                    BRIDGE (02:51-03:28)                               |
-----------------------------------------------------------------------------------------

I. Guitar 1 (w/ dist)

 B|--------------------------|--------------------------|--------------------------|
F#|--------------------------|--------------------------|--------------------------|
 D|--------------------------|--------------------------|--------------------------|
 A|-----------6-----------6--|-----------6-----------6--|-----------6-----------6--|
 E|-0--0-0--0-5--0--0--0--5--|-0--0-0--0-5--0--0--0--5--|-0--0-0--0-5--0--0--0--5--|
 A|-0--0-0--0----0--0--0-----|-0--0-0--0----0--0--0-----|-0--0-0--0----0--0--0-----|
    *  * *  *    *  *  *       *  * *  *    *  *  *       *  * *  *    *  *  *

II. Guitars 1 and 2 (w/ dist)

 B|-----------------------|
F#|-----------------------|
 D|-5---8---5--10--5---7--|
 A|-x---x---x--x---x---x--|
 E|-3---6---3--8---3---5--|
 A|-----------------------|

 B|--------------------------|--------------------------|
F#|--------------------------|--------------------------|
 D|-----------7-----------7--|-----------7-----------7--|
 A|-----------6-----------6--|-----------6-----------6--|
 E|-0--0-0--0-5--0--0--0--5--|-0--0-0--0-5--0--0--0--5--|
 A|-0--0-0--0----0--0--0-----|-0--0-0--0----0--0--0-----|\
    *  * *  *    *  *  *       *  * *  *    *  *  *       x3
 B|--------------------------|-----------------------|   /
F#|--------------------------|-----------------------|  /
 D|-----------7-----------7--|-5---8---5--10--5---7--| /
 A|-----------6-----------6--|-x---x---x--x---x---x--|/
 E|-0--0-0--0-5--0--0--0--5--|-3---6---3--8---3---5--|
 A|-0--0-0--0----0--0--0-----|-----------------------|
    *  * *  *    *  *  *     

-----------------------------------------------------------------------------------------
|                                 PRE-CHORUS 2 (03:28-03:45)                            |
-----------------------------------------------------------------------------------------

Guitar 1 (w/ dist)

 B|-------------------------------|---------------------------------|
F#|-------------------------------|---------------------------------|
 D|-------7-7-7-7-7-7-7-7-7-7-7-7-|-7-7-7-7-7-7-7-7-7-7-7-7-7-7-7-7-|
 A|-------x-x-x-x-x-x-x-x-x-x-x-x-|-x-x-x-x-x-x-x-x-x-x-x-x-x-x-x-x-|
 E|-------5-5-5-5-5-5-5-5-5-5-5-5-|-5-5-5-5-5-5-5-5-5-5-5-5-5-5-5-5-| 
 A|-0--0--------------------------|---------------------------------| 
                                                     
                                                    gtr 2 enters 
 B|-------------------------------|------------------------------------|
F#|-------------------------------|------------------------------------|
 D|-------5-5-5-5-5-5-5-5-5-5-5-5-|-5-5-5-5-5-5-5-5-5s8-8-8-8s10-10-10-|
 A|-------x-x-x-x-x-x-x-x-x-x-x-x-|-x-x-x-x-x-x-x-x-x-x-x-x-x-x--x--x--|
 E|-------3-3-3-3-3-3-3-3-3-3-3-3-|-3-3-3-3-3-3-3-3-3s6-6-6-6s8--8--8--|
 A|-0--0--------------------------|------------------------------------|

Guitars 1 and 2 (w/ dist)

 B|-------------------------------|---------------------------------|
F#|-------------------------------|---------------------------------|
 D|-------7-7-7-7-7-7-7-7-7-7-7-7-|-7-7-7-7-7-7-7-7-7-7-7-7-7-7-7-7-|
 A|-------x-x-x-x-x-x-x-x-x-x-x-x-|-x-x-x-x-x-x-x-x-x-x-x-x-x-x-x-x-|
 E|-------5-5-5-5-5-5-5-5-5-5-5-5-|-5-5-5-5-5-5-5-5-5-5-5-5-5-5-5-5-| 
 A|-0--0--------------------------|---------------------------------| 
                                                                     
 B|-------------------------------|------------------------------------|
F#|-------------------------------|------------------------------------|
 D|-------5-5-5-5-5-5-5-5-5-5-5-5-|-5-5-5-5-5-5-5-5-5s8-8-8-8s10-10-10-|
 A|-------x-x-x-x-x-x-x-x-x-x-x-x-|-x-x-x-x-x-x-x-x-x-x-x-x-x-x--x--x--|
 E|-------3-3-3-3-3-3-3-3-3-3-3-3-|-3-3-3-3-3-3-3-3-3s6-6-6-6s8--8--8--|
 A|-0--0--------------------------|------------------------------------|

-----------------------------------------------------------------------------------------
|                                   CHORUS 3 (03:45-04:04)                              |
-----------------------------------------------------------------------------------------
                                       same as CHORUS
-----------------------------------------------------------------------------------------
|                                     OUTRO (04:04-04:31)                               |
-----------------------------------------------------------------------------------------

Guitars 1 and 2 (w/ dist)

 B|--------------------------|--------------------------|
F#|--------------------------|--------------------------|
 D|-----------7-----------7--|-----------7-----------7--|
 A|-----------6-----------6--|-----------6-----------6--|
 E|-0--0-0--0-5--0--0--0--5--|-0--0-0--0-5--0--0--0--5--|
 A|-0--0-0--0----0--0--0-----|-0--0-0--0----0--0--0-----|\
    *  * *  *    *  *  *       *  * *  *    *  *  *       x2
 B|--------------------------|-----------------------|   /
F#|--------------------------|-----------------------|  /
 D|-----------7-----------7--|-5---8---5--10--5---7--| /
 A|-----------6-----------6--|-x---x---x--x---x---x--|/
 E|-0--0-0--0-5--0--0--0--5--|-3---6---3--8---3---5--|
 A|-0--0-0--0----0--0--0-----|-----------------------|
    *  * *  *    *  *  *
 B|----------|
F#|----------|
 D|----------|
 A|----------|
 E|----------|
 A|-0-0------|

Добавлено: 12.09.2015
Другие материалы по этой песне:

Страница создана 12.09.2015
http://primanota.ru/coal-chamber/rivals-chords.htm
Привет, Гость.
Предлагаем пройти революционный курс по гитаре.
Подарок от PrimaNota.Ru, забирай!