PrimaNota.ru - самый крупный в мире бесплатный архив песенных текстов, аккордов, табулатур и нот


Coal Chamber - Iou Nothing - таба, видео

Регистрация Запомнить меня
Войти через:  Facebook Google Twitter Vk Yandex Mail.ru

Coal Chamber - Iou Nothing - таба, видео

Печатать
Просмотров: 126
-----------------------------------------------------------------------------------------
|                               COAL CHAMBER - I.O.U NOTHING                            |
|                                    Album: Rivals (2015)                               |
-----------------------------------------------------------------------------------------
           If you have questions or corrections feel free to send me a message:
                        http://profile.ultimate-guitar.com/godspeedy/
                           https://www.facebook.com/Godspeedy14
                           
        Also, check out my Youtube channel: http://www.youtube.com/user/Godspeedy14

                *************************************************************
                * NOTE: If you need a playthrough, check out my cover here: *
                *       https://www.youtube.com/watch?v=jl0P5AwyrbY         *
                *************************************************************

                                  Tuning: 6 string BEADF#B 
                                                        
**************************************GUITAR NOTATIONS***********************************
*                                                                                       *
*                                | *   palm mute         |                              *
*                                | b   bend              |                              *
*                                | r   release           |                              *
*                                | pb  pre-bend          |                              *
*                                | ''  Natural harmonics |                              *
*                                                                                       *
*****************************************************************************************

-----------------------------------------------------------------------------------------
|                                    INTRO (00:00-00:15)                                |
-----------------------------------------------------------------------------------------

Guitars 1 and 2 (w/ dist) - (all notes - natural harmonics)

 B|------------------------------------------|------------------------------------------|
F#|------------------------------------------|------------------------------------------|
 D|------------------------------------------|------------------------------------------|
 A|------------------------------------------|------------------------------------------|
 E|-'2.7''2.7'-----'2.7''2.7'-----'2.7''2.7'-|------'2.7''2.7'-----'2.7''2.7'-----------|
 B|-----------'2.7'----------'2.7'-----------|-'2.7'----------'2.7'----------'2.7'------|

 B|------------------------------------------|------------------------------------------|
F#|------------------------------------------|------------------------------------------|
 D|------------------------------------------|------------------------------------------|
 A|------------------------------------------|------------------------------------------|
 E|-'2.7''2.7'-----'2.7''2.7'-----'2.7''2.7'-|------'2.7''2.7'-----'2.7''2.7'-----'2.7'-|\
 B|-----------'2.7'----------'2.7'-----------|-'2.7'----------'2.7'----------'2.7'------| \
                                                                                           x2
 B|------------------------------------------|------------------------------------------| /
F#|------------------------------------------|------------------------------------------|/
 D|------------------------------------------|------------------------------------------|
 A|------------------------------------------|------------------------------------------|
 E|-'2.7''2.7'-----'2.7''2.7'-----'2.7''2.7'-|------'2.7''2.7'-----'2.7''2.7'-----------|
 B|-----------'2.7'----------'2.7'-----------|-'2.7'----------'2.7'----------'2.7'------|

-----------------------------------------------------------------------------------------
|                                   VERSE (00:15-00:27)                                 |
-----------------------------------------------------------------------------------------

Guitars 1 and 2 (w/ dist)

 B|---------------------|---------------------|---------------------|-------------------------|
F#|---------------------|---------------------|---------------------|-------------------------|
 D|---------------------|---------------------|---------------------|-------------------------|
 A|---------------------|---------------------|---------------------|-------------------------|
 E|-2--2--------2-------|-2--2--------2-------|-2--2--------2-------|-2--------2--------2-----|
 B|-0--0--3-----0--3----|-0--0--3-----0--3----|-0--0--3-----0--3----|-0--3--3--0--3--3--0--3--|

 B|---------------------|---------------------|---------------------|-------------------------|
F#|---------------------|---------------------|---------------------|-------------------------|
 D|---------------------|---------------------|---------------------|-------------------------|
 A|---------------------|---------------------|---------------------|-------------------------|
 E|-2--2--------2-------|-2--2--------2-------|-2--2--------2-------|-5--5--5--5--6--6--6--6--|
 B|-0--0--3-----0--3----|-0--0--3-----0--3----|-0--0--3-----0--3----|-2--2--2--2--3--3--3--3--|
                                      
-----------------------------------------------------------------------------------------
|                                    CHORUS (00:27-00:51)                               |
-----------------------------------------------------------------------------------------

I. Guitars 1 and 2 (w/ dist)

 B|------------------------|------------------------|------------------------|------------------------|
F#|------------------------|------------------------|------------------------|------------------------|
 D|------------------------|------------------------|------------------------|------------------------|
 A|------------------------|------------------------|------------------------|------------------------|
 E|-2--2--2--2--2--2--2--2-|-2--2--2--2--2--2--2--2-|-5--5--5--5--5--5--5--5-|-3--3--3--3--3--3--3--3-|
 B|-0--0--0--0--0--0--0--0-|-0--0--0--0--0--0--0--0-|-3--3--3--3--3--3--3--3-|-1--1--1--1--1--1--1--1-|

 B|------------------------|------------------------|------------------------|------------------------|
F#|------------------------|------------------------|------------------------|------------------------|
 D|------------------------|------------------------|------------------------|------------------------|
 A|------------------------|------------------------|------------------------|------------------------|
 E|-2--2--2--2--2--2--2--2-|-2--2--2--2--2--2--2--2-|-5--5--5--5--5--5--5--5-|-5--5--5--5--5--5--5--5-|
 B|-0--0--0--0--0--0--0--0-|-0--0--0--0--0--0--0--0-|-3--3--3--3--3--3--3--3-|-7--7--7--7--7--7--7--7-|


   Guitar 3 (w/ dist) - (all notes here - 8's)

 B|----------------------------------------|-----------------------------------------|
F#|-17----17---17--17----17---17--17----17-|---17--17----17---17--17----17---17--17--|
 D|-20b-pb20-pb20r-20b-pb20-pb20r-20b-pb20-|-pb20r-20b-pb20-pb20r-20b-pb20-pb20r-20b-| x4
 A|----------------------------------------|-----------------------------------------|
 E|----------------------------------------|-----------------------------------------|
 B|----------------------------------------|-----------------------------------------|

II. Guitar 1 and 2 (w/ dist)

 B|------------------------------------------|------------------------------------------|
F#|------------------------------------------|------------------------------------------|
 D|------------------------------------------|------------------------------------------|
 A|------------------------------------------|------------------------------------------|
 E|-'2.7''2.7'-----'2.7''2.7'-----'2.7''2.7'-|------'2.7''2.7'-----'2.7''2.7'-----'2.7'-|\
 B|-----------'2.7'----------'2.7'-----------|-'2.7'----------'2.7'----------'2.7'------| \
                                                                                           x2
 B|------------------------------------------|------------------------------------------| /
F#|------------------------------------------|------------------------------------------|/
 D|------------------------------------------|------------------------------------------|
 A|------------------------------------------|------------------------------------------|
 E|-'2.7''2.7'-----'2.7''2.7'-----'2.7''2.7'-|------'2.7''2.7'-----'2.7''2.7'-----------|
 B|-----------'2.7'----------'2.7'-----------|-'2.7'----------'2.7'----------'2.7'------|

-----------------------------------------------------------------------------------------
|                                   VERSE 2 (00:51-01:03)                               |
-----------------------------------------------------------------------------------------
                                        same as VERSE        
-----------------------------------------------------------------------------------------
|                                   CHORUS 2 (01:03-01:26)                              |
-----------------------------------------------------------------------------------------

Guitars 1 and 2 (w/ dist)

 B|------------------------|------------------------|------------------------|------------------------|
F#|------------------------|------------------------|------------------------|------------------------|
 D|------------------------|------------------------|------------------------|------------------------|
 A|------------------------|------------------------|------------------------|------------------------|
 E|-2--2--2--2--2--2--2--2-|-2--2--2--2--2--2--2--2-|-5--5--5--5--5--5--5--5-|-3--3--3--3--3--3--3--3-|\
 B|-0--0--0--0--0--0--0--0-|-0--0--0--0--0--0--0--0-|-3--3--3--3--3--3--3--3-|-1--1--1--1--1--1--1--1-| \
                                                                                                         x2
 B|------------------------|------------------------|------------------------|------------------------| /
F#|------------------------|------------------------|------------------------|------------------------|/
 D|------------------------|------------------------|------------------------|------------------------|
 A|------------------------|------------------------|------------------------|------------------------|
 E|-2--2--2--2--2--2--2--2-|-2--2--2--2--2--2--2--2-|-5--5--5--5--5--5--5--5-|-5--5--5--5--5--5--5--5-|
 B|-0--0--0--0--0--0--0--0-|-0--0--0--0--0--0--0--0-|-3--3--3--3--3--3--3--3-|-7--7--7--7--7--7--7--7-|

   Guitar 3 (w/ dist) - (all notes here - 8's)

 B|----------------------------------------|-----------------------------------------|
F#|-17----17---17--17----17---17--17----17-|---17--17----17---17--17----17---17--17--|
 D|-20b-pb20-pb20r-20b-pb20-pb20r-20b-pb20-|-pb20r-20b-pb20-pb20r-20b-pb20-pb20r-20b-| x4
 A|----------------------------------------|-----------------------------------------|
 E|----------------------------------------|-----------------------------------------|
 B|----------------------------------------|-----------------------------------------|
в
-----------------------------------------------------------------------------------------
|                                    BRIDGE (01:26-02:24)                               |
-----------------------------------------------------------------------------------------

I. Guitar 1 (w/ dist)

 B|-------------------------|------------------------|------------------------|------------------------|
F#|-------------------------|------------------------|------------------------|------------------------|
 D|-------------------------|------------------------|------------------------|------------------------|
 A|-------------------------|------------------------|------------------------|------------------------|
 E|-7--7--7--9--7--7--10--7-|-7--9--7--7--5--5--7--7-|-3--3--3--5--5--5--2--2-|-2--3--3--3--2--2--2--2-|
 B|-------------------------|------------------------|------------------------|------------------------|

II. Guitars 1 and 2 (w/ dist)

 B|-------------------------|------------------------|------------------------|------------------------|
F#|-------------------------|------------------------|------------------------|------------------------|
 D|-------------------------|------------------------|------------------------|------------------------| x3
 A|-------------------------|------------------------|------------------------|------------------------|
 E|-7--7--7--9--7--7--10--7-|-7--9--7--7--5--5--7--7-|-3--3--3--5--5--5--2--2-|-2--3--3--3--2--2--2--2-|
 B|-------------------------|------------------------|------------------------|------------------------|

 B|-------------------------|--------------------|---------------------------|------------------------|
F#|-------------------------|--------------------|---------------------------|------------------------|
 D|-------------------------|--------------------|---------------------------|------------------------| x4
 A|-6--------8--------9-----|----8---------------|---------------------------|------------------------|
 E|-7--------9--------10----|----9---------------|---------------------------|------------------------|
 B|----0--0-----0--0------0-|-0-----0--0--10-h12-|-8--8--8--10--10--10--7--7-|-7--8--8--8--7--7--7--7-|
       *  *     *  *      *   *     *  *           *  *  *  *   *   *   *  *   *  *  *  *  *  *  *  *
 B|---------------------------------------------|-------------------------------------------------|
F#|---------------------------------------------|-------------------------------------------------|
 D|---------------------------------------------|-------------------------------------------------| x4
 A|---------------------------------------------|-------------------------------------------------|
 E|-9-9-9-9-10-10-10-10-12-12-12-12-14-14-14-14-|-15-15-15-15-17-17-17-17-15-15-15-15-14-14-14-14-|
 B|---------------------------------------------|-------------------------------------------------|

-----------------------------------------------------------------------------------------
|                                   CHORUS 3 (02:24-02:47)                              |
-----------------------------------------------------------------------------------------

Guitars 1 and 2 (w/ dist)

 B|------------------------|------------------------|------------------------|------------------------|
F#|------------------------|------------------------|------------------------|------------------------|
 D|------------------------|------------------------|------------------------|------------------------|
 A|------------------------|------------------------|------------------------|------------------------|
 E|-2--2--2--2--2--2--2--2-|-2--2--2--2--2--2--2--2-|-5--5--5--5--5--5--5--5-|-3--3--3--3--3--3--3--3-|\
 B|-0--0--0--0--0--0--0--0-|-0--0--0--0--0--0--0--0-|-3--3--3--3--3--3--3--3-|-1--1--1--1--1--1--1--1-| \
                                                                                                         x2
 B|------------------------|------------------------|------------------------|------------------------| /
F#|------------------------|------------------------|------------------------|------------------------|/
 D|------------------------|------------------------|------------------------|------------------------|
 A|------------------------|------------------------|------------------------|------------------------|
 E|-2--2--2--2--2--2--2--2-|-2--2--2--2--2--2--2--2-|-5--5--5--5--5--5--5--5-|-5--5--5--5--5--5--5--5-|
 B|-0--0--0--0--0--0--0--0-|-0--0--0--0--0--0--0--0-|-3--3--3--3--3--3--3--3-|-7--7--7--7--7--7--7--7-|

-----------------------------------------------------------------------------------------
|                                     OUTRO (02:47-03:03)                               |
-----------------------------------------------------------------------------------------

Guitars 1 and 2 (w/ dist)

 B|------------------------|------------------------|------------------------|---------------------|
F#|------------------------|------------------------|------------------------|---------------------|
 D|------------------------|------------------------|------------------------|---------------------|
 A|------------------------|------------------------|------------------------|---------------------|
 E|-2--2--2--2--2--2--2--2-|-2--2--2--2--2--2--2--2-|-5--5--5--5--5--5--5--5-|-3--3--3--3--3---3---|
 B|-0--0--0--0--0--0--0--0-|-0--0--0--0--0--0--0--0-|-3--3--3--3--3--3--3--3-|-1--1--1--1--1---1---| 
                                                                                           *   *         
 B|------------------------|------------------------|------------------------|------------------------| 
F#|------------------------|------------------------|------------------------|------------------------|
 D|------------------------|------------------------|------------------------|------------------------|
 A|------------------------|------------------------|------------------------|------------------------|
 E|-2--2--2--2--2--2--2--2-|-2--2--2--2--2--2--2--2-|-5--5--5--5--5--5--5--5-|-5--5--5--5--5--5--5--2-|
 B|-0--0--0--0--0--0--0--0-|-0--0--0--0--0--0--0--0-|-3--3--3--3--3--3--3--3-|-7--7--7--7--7--7--7--0-|
                                                                                           *  *  *  *



Добавлено: 12.09.2015
Другие материалы по этой песне:

Страница создана 12.09.2015
http://primanota.ru/coal-chamber/iou-nothing-chords.htm
Привет, Гость.
Предлагаем пройти революционный курс по гитаре.
Подарок от PrimaNota.Ru, забирай!