PrimaNota.ru - самый крупный в мире бесплатный архив песенных текстов, аккордов, табулатур и нот


Coal Chamber - First - текст песни, таба, бас-таба, видео

Регистрация Запомнить меня
Войти через:  Facebook Google Twitter Vk Yandex Mail.ru

Coal Chamber - First - текст песни, таба, бас-таба, видео

Печатать
Просмотров: 189
----------------------------------------------------------------------|
                             FIRST by Coal Chamber
----------------------------------------------------------------------|
Tabbed by: indust from ultimateguitar.com

Tabbed in February 27th 2011.

Tuning: Drop B

This is the 7th track from Coal Chamber's debut album released in 1997. It's a pretty 
easy song, but still, pretty fun to play. This is my second tab ever written, so don't 
expect it to be perfect.


INTRO RIFF 4x (0:20)
C#|------------------------------------------------------------------|
G#|------------------------------------------------------------------|
E|-------------------------------------------------------------------|
B|---3---4---1---3---4---6---4---3-----------------------------------|
F#|------------------------------------------------------------------|
B|-------------------------------------------------------------------|

CHORUS RIFF 4x (0:58)
C#|------------------------------------------------------------------|
G#|-----------------8------------------------------------------------|
E|-------------------------------------------------------------------|
B|-------------------------------------------------------------------|
F#|---3-3-3-3-4-3-3---3-3-3-6-4-4-3----------------------------------|
B|----3-3-3-3-4-3-3---3-3-3-6-4-4-3----------------------------------|

BRIDGE (1:16)
C#|------------------------------------------------------------------|
G#|------------------------------------------------------------------|
E|-------------------------------------------------------------------|
B|-------------------------------------------------------------------|
F#|--4-3-4-3--3-4-3-3--0-2-4-2-0-------------------------------------|
B|---4-3-4-3--3-4-3-3--0-2-4-2-0-------------------------------------|

INTRO RIFF 1x (1:19)

INTRO RIFF EDIT 3x (1:28) [it's basically the same thing, except you need to play it on 
the F# string, not on the B string]
C#|------------------------------------------------------------------|
G#|------------------------------------------------------------------|
E|-------------------------------------------------------------------|
B|-------------------------------------------------------------------|
F#|---3---4---1---3---4---6---4---3----------------------------------|
B|-------------------------------------------------------------------|

Then comes the CHORUS RIFF 4x (1:57)

And then you wanna play the BRIDGE 9x (2:16), which ends at some parts like this;
C#|----------------------------------|-------------------------------|
G#|----------------------------------|-------------------------------|
E|-----------------------------------|-------------------------------|
B|-----------------------------------|-------------------------------|
F#|--4-3-4-3--3-4-3-3--0-2-4-2-0-----|---4-3-4-3--3-4-3-3---2-2--2-2-|
B|---4-3-4-3--3-4-3-3--0-2-4-2-0-----|---4-3-4-3--3-4-3-3---2-2--2-2-|

BREAKDOWN 4x (2:58)
C#|-----------|--------------------------------------------------------|
G#|--------4b-|--------------------------------------------------------|
E|---------3b-|--------------------------------------------------------|
B|------------|--------------------------------------------------------|
F#|----3-3----|-4-3-1-3-3--3-4-3--4-3-1-3------------------------------|
B|-----3-3----|-4-3-1-3-3--3-4-3--4-3-1-3------------------------------|

CHORUS RIFF 4x (3:08)

BRIDGE 8x (3:28)

As the song comes to an end CHORUS RIFF (3:47) is being played again. It features an 
effect, but it sounds rather similar if you strum the strings mildly with your fingernail.

And this is pretty much it. Rate, favorite and thanks for checking it out!
Добавлено: 12.06.2012
Другие материалы по этой песне:
  • Аккорды и текст

Страница создана 17.04.2012
http://primanota.ru/coal-chamber/first-chords.htm
Привет, Гость.
Предлагаем пройти революционный курс по гитаре.
Подарок от PrimaNota.Ru, забирай!