PrimaNota.ru - самый крупный в мире бесплатный архив песенных текстов, аккордов, табулатур и нот


Coal Chamber - Another Nail In The Coffin - таба, видео

Регистрация Запомнить меня
Войти через:  Facebook Google Twitter Vk Yandex Mail.ru

Coal Chamber - Another Nail In The Coffin - таба, видео

Печатать
Просмотров: 57
|--------------------------------------------------------------------------------------------------------|
|                                COAL CHAMBER - ANOTHER NAIL IN THE COFFIN                               |
|                                           Album: Rivals (2015)                                         |
|--------------------------------------------------------------------------------------------------------|

                   If you have questions or corrections feel free to send me a message:
                                http://profile.ultimate-guitar.com/godspeedy/
                                    https://www.facebook.com/Godspeedy14
                     
                Also, check out my Youtube channel: http://www.youtube.com/user/Godspeedy14

                                         Tuning: 6 string AEADF#B 
                                                    
*********************************************GUITAR NOTATIONS*********************************************
*                                                                                                        *
*                                      | *   palm mute           |                                       *
*                                      | /s  slide in from below |                                       *
*                                      | p   pull-off            |                                       *
*                                      | ..  let ring            |                                       *
*                                                                                                        *
**********************************************************************************************************

|--------------------------------------------------------------------------------------------------------|
|                                          INTRO (00:00-00:33)                                           |
|--------------------------------------------------------------------------------------------------------|

I. Guitars 1 and 2 (w/ dist)

 B|----------------------------------|
F#|----------------------------------|
 D|----------------------------------| x4
 A|-7p0-8p0-7p0-8p0-7p0-8p0-10p0-8p0-|
 E|----------------------------------|
 A|----------------------------------|

II. Guitar 1 and 2 (w/ overdrive)

    ................................
 B|---------------------------------|
F#|-15----------15----------15------|
 D|-----12----------12----------12--|
 A|---------13----------13----------|
 E|---------------------------------|
 A|---------------------------------|

III. Guitars 1 and 2 (w/ dist)

 B|-----------------------------------|-----------------------------------|
F#|-----------------------------------|-----------------------------------|
 D|-----------------------------------|-----------------------------------|
 A|-----------------------------------|-----------------------------------|
 E|--------------------------------13-|--------------------------------15-|
 A|-0-0-0----0-0-0----0-0-0----0------|-0-0-0----0-0-0----0-0-0----0------|\
                                                                            x3
 B|-----------------------------------|-----------------------------------|/
F#|-----------------------------------|-----------------------------------|
 D|-----------------------------------|-----------------------------------|
 A|-----------------------------------|-0--1--1---1---4---4---4---1---1---|
 E|--------------------------------16-|-0--1--1---1---4---4---4---1---1---|
 A|-0-0-0----0-0-0----0-0-0----0------|-0--1--1---1---4---4---4---1---1---|

|--------------------------------------------------------------------------------------------------------|
|                                          VERSE (00:33-00:40)                                           |
|--------------------------------------------------------------------------------------------------------|

Guitar 1 (w/ overdrive+weird effect)

    ..............................
 B|---------------------------------|
F#|-17----------17----------17------|
 D|-----20----------20----------20--| x4
 A|---------18----------18----------|
 E|---------------------------------|
 A|---------------------------------|
                                     
|--------------------------------------------------------------------------------------------------------|
|                                        PRE-CHORUS (00:40-00:56)                                        |
|--------------------------------------------------------------------------------------------------------|

Guitars 1 and 2 (w/ dist)
                                                                        -------------|
 B|--------------------------------------|-------------------------------------|     |
F#|--------------------------------------|-------------------------------------|     |
 D|--------------------------------------|-------------------------------------|     |
 A|--------------------------------------|-------------------------------------|     |
 E|--------------------------------------|---------------------11------10--11--|     |
 A|-12-12-12--12--12-12-12--12--12-12-12-|-12-12-12--12--12-12-----12----------|     |
    *  *  *   *   *  *  *   *   *  *  *    *  *  *   *   *  *      *                 | x2
 B|--------------------------------------|----------------------|                    |
F#|--------------------------------------|----------------------|                    |
 D|--------------------------------------|----------------------|                    |
 A|--------------------------------------|----------------------|                    |
 E|--------------------------------------|-0----0----0----0-----|                    |
 A|-12-12-12--12--12-12-12--12--12-12-12-|-0----0----0----0-----|                    |
    *  *  *   *   *  *  *   *   *  *  *    *    *    *    *  ------------------------|

|--------------------------------------------------------------------------------------------------------|
|                                          CHORUS (00:56-01:11)                                          |
|--------------------------------------------------------------------------------------------------------|

Guitars 1 and 2 (w/ dist)

 B|-----------------------------------|-----------------------------------|
F#|-----------------------------------|-----------------------------------|
 D|-----------------------------------|-----------------------------------|
 A|-----------------------------------|-----------------------------------|
 E|--------------------------------13-|--------------------------------15-|
 A|-0-0-0----0-0-0----0-0-0----0------|-0-0-0----0-0-0----0-0-0----0------|\
                                                                            x2
 B|-----------------------------------|-----------------------------------|/
F#|-----------------------------------|-----------------------------------|
 D|-----------------------------------|-----------------------------------|
 A|-----------------------------------|-0--1--1---1---4---4---4---1---1---|
 E|--------------------------------16-|-0--1--1---1---4---4---4---1---1---|
 A|-0-0-0----0-0-0----0-0-0----0------|-0--1--1---1---4---4---4---1---1---|

|--------------------------------------------------------------------------------------------------------|
|                                         VERSE 2 (01:11-01:19)                                          |
|--------------------------------------------------------------------------------------------------------|
                                              same as VERSE
|--------------------------------------------------------------------------------------------------------|
|                                       PRE-CHORUS 2 (01:19-01:26)                                       |
|--------------------------------------------------------------------------------------------------------|

Guitars 1 and 2 (w/ dist)
             
 B|--------------------------------------|-------------------------------------|
F#|--------------------------------------|-------------------------------------|
 D|--------------------------------------|-------------------------------------|
 A|--------------------------------------|-------------------------------------|
 E|--------------------------------------|---------------------11------10--11--| 
 A|-12-12-12--12--12-12-12--12--12-12-12-|-12-12-12--12--12-12-----12----------|
    *  *  *   *   *  *  *   *   *  *  *    *  *  *   *   *  *      * 
 B|--------------------------------------|----------------------|
F#|--------------------------------------|----------------------|
 D|--------------------------------------|----------------------|
 A|--------------------------------------|----------------------|
 E|--------------------------------------|-0----0----0----0-----|
 A|-12-12-12--12--12-12-12--12--12-12-12-|-0----0----0----0-----|
    *  *  *   *   *  *  *   *   *  *  *    *    *    *    * 

|--------------------------------------------------------------------------------------------------------|
|                                         CHORUS 2 (01:26-01:42)                                         |
|--------------------------------------------------------------------------------------------------------|
                                              same as CHORUS
|--------------------------------------------------------------------------------------------------------|
|                                          BRIDGE (01:42-02:48)                                          |
|--------------------------------------------------------------------------------------------------------|

Guitars 1 and 2 (w/ dist)

 B|-----------------------------------|-----------------------------------|
F#|-----------------------------------|-----------------------------------|
 D|-----------------------------------|-----------------------------------|
 A|-0--1--1---1---4---4---4---1---1---|-0--1--1---1---4-------1-------1---|
 E|-0--1--1---1---4---4---4---1---1---|-0--1--1---1---4-------1-------1---|
 A|-0--1--1---1---4---4---4---1---1---|-0--1--1---1---4-------1-------1---|\
                                                                            x2
 B|-----------------------------------|-----------------------------------|/
F#|-----------------------------------|-----------------------------------|
 D|-----------------------------------|-----------------------------------|
 A|-0--1--1---1---4---4---4---1---1---|-0--1--1---1---4---4---4---1---1---|
 E|-0--1--1---1---4---4---4---1---1---|-0--1--1---1---4---4---4---1---1---|
 A|-0--1--1---1---4---4---4---1---1---|-0--1--1---1---4---4---4---1---1---|

 B|----------------------------------|
F#|----------------------------------|
 D|----------------------------------|
 A|-7p0-8p0-7p0-8p0-7p0-8p0-10p0-8p0-|
 E|----------------------------------|
 A|----------------------------------|
                                                                               ------------|
 B|----------------------------------------|-----------------------------------------|     |
F#|----------------------------------------|-----------------------------------------|     |
 D|----------------------------------------|-----------------------------------------|     |
 A|----------------------------------------|-----------------------------------------|     | 
 E|----------------------------------------|-----------------------------------------|     |
 A|-0--0--0---0--0--0---0--0--0---0--0--0--|-0--0--0---0--0--0---0--0--0---0--0--0---|     |
    *  *      *  *      *  *      *  *       *  *      *  *      *  *      *  *            | x2
 B|----------------------------------------|-----------------------------------|           |
F#|----------------------------------------|-----------------------------------|           | 
 D|----------------------------------------|-----------------------------------|           |
 A|----------------------------------------|-------8---8---8---8---8---9---8---|           |
 E|----------------------------------------|-------8---8---8---8---8---9---8---|           |
 A|-0--0--0---0--0--0---0--0--0---0--0--0--|-0--0--8---8---8---8---8---9---8---|           |
    *  *      *  *      *  *      *  *       *  *                          ----------------|

 B|-----------------------------------|      |--------|
F#|-----------------------------------|      |--------|
 D|-----------------------------------| x3   |--------|
 A|-------8---8---8---8---8---9---8---|      |-0------|
 E|-------8---8---8---8---8---9---8---|      |-0------|
 A|-0--0--8---8---8---8---8---9---8---|      |-0------|
    *  *

 B|---------------------------------|---------------------------------|
F#|---------------------------------|---------------------------------|
 D|---------------------------------|---------------------------------|
 A|-4---3---3-------3-------4---3---|-4---3---3-------3-------4---3---|
 E|-4---3---3-------3-------4---3---|-4---3---3-------3-------4---3---|
 A|-4---3---3-------3-------4---3---|-4---3---3-------3-------4---3---|\
                                                                        x3
 B|---------------------------------|---------------------------------|/
F#|---------------------------------|---------------------------------|
 D|---------------------------------|---------------------------------|
 A|-4---3---3-------3-------4---3---|/s10--10--10--11--11--12--13--12-|
 E|-4---3---3-------3-------4---3---|/s8---8---8---9---9---12--13--12-|
 A|-4---3---3-------3-------4---3---|----------------------12--13--12-|

 B|----------------------------------------|-------------------------------------|
F#|----------------------------------------|-------------------------------------|
 D|----------------------------------------|-------------------------------------|
 A|----------------------------------------|-------------------------------------|
 E|----------------------------------------|-------------------------------------|
 A|-0--0--0---0--0--0---0--0--0---0--0--0--|-0--0--0---0--0--0---0--0--0---0-----|
    *  *      *  *      *  *      *  *       *  *      *  *      *  *    

|--------------------------------------------------------------------------------------------------------|
|                                         CHORUS 3 (02:48-03:11)                                         |
|--------------------------------------------------------------------------------------------------------|

Guitars 1 and 2 (w/ dist)

 B|-----------------------------------|-----------------------------------|
F#|-----------------------------------|-----------------------------------|
 D|-----------------------------------|-----------------------------------|
 A|-----------------------------------|-----------------------------------|
 E|--------------------------------13-|--------------------------------15-|
 A|-0-0-0----0-0-0----0-0-0----0------|-0-0-0----0-0-0----0-0-0----0------|\
                                                                            x3
 B|-----------------------------------|-----------------------------------|/
F#|-----------------------------------|-----------------------------------|
 D|-----------------------------------|-----------------------------------|
 A|-----------------------------------|-0--1--1---1---4---4---4---1---1---|
 E|--------------------------------16-|-0--1--1---1---4---4---4---1---1---|
 A|-0-0-0----0-0-0----0-0-0----0------|-0--1--1---1---4---4---4---1---1---|

|--------------------------------------------------------------------------------------------------------|
|                                          OUTRO (03:11-03:21)                                           |
|--------------------------------------------------------------------------------------------------------|

Guitars 1 and 2 (w/ dist)

 B|--------------------|
F#|--------------------|
 D|--------------------| x4
 A|-3----3-------------|
 E|-3----3-------------|
 A|-3----3-------------|


Добавлено: 12.09.2015
Другие материалы по этой песне:

Страница создана 12.09.2015
http://primanota.ru/coal-chamber/another-nail-in-coffin-chords.htm
Привет, Гость.
Предлагаем пройти революционный курс по гитаре.
Подарок от PrimaNota.Ru, забирай!