PrimaNota.ru - самый крупный в мире бесплатный архив песенных текстов, аккордов, табулатур и нот


C.N.BLUE - Like A Child - аккорды и текст, видео

Регистрация Запомнить меня
Войти через:  Facebook Google Twitter Vk Yandex Mail.ru

C.N.BLUE - Like A Child - аккорды и текст, видео

Печатать
Просмотров: 46
Like A Child
C.N.BLUE
-------------------------------------------------------------------------------
                             Like a Child - CNBLUE
-------------------------------------------------------------------------------
Tabbed by: loveiscurry.tumblr.com
This is my first tab, so if there are any problems you can message me. I hope it helps you out :)

intro: e|-3-6-3---------4-----|---4---------3-6-3---|
       B|-------4---4-6---6---|-6---6---6-4-------4-|
       G|---------5---------6-|-------6-------------| x2
       D|---------------------|---------------------|
       A|---------------------|---------------------|
       E|---------------------|---------------------|


  C          F               F                     C
Aiui balgeun miso chuk chyeojin neoui eokkael pige hae

  C          F           F                   C
Aiui malgeun nunbit eoreobuteun dosireul nogine



C                   Bb
Sumanheun cheonsawa byeoldeuri naeryeowa

   F                          C
Ni mameul barkhyeojuneun i sungan

C                 Bb
Sumanheun yaegiwa sarangeul nanumyeo

  F                          C
Apgireul barkhyeojuneun i sungan



pick:  e|-3-6-3---------4-----|---4---------3-6-3---|
       B|-------4---4-6---6---|-6---6---6-4-------4-|
       G|---------5---------6-|-------6-------------| 
       D|---------------------|---------------------|
       A|---------------------|---------------------|
       E|---------------------|---------------------|



       C               F      F              C
Like a child just like heaven sesange peojil mellodi

       C               F      F                 C
Like a child just like heaven neol utge mandeul mellodi




           C                         F                 F         C
Challanhan mulgyeolcheoreom tteuneun taeyangcheoreom i areumdaun seonyuldeul

              C                     F               F         C
Pyeolchyeojin chowoncheoreom jineun noeulcheoreom i areumdaun paradise



pick:  e|-2---2-0-----|-0---0--------|
       B|---------2---|-------3-0----|
       G|-----------2-|-----------0--| 
       D|-------------|--------------|
       A|-------------|--------------|
       E|-------------|--------------|




       C          F             F                      C
Geommeogeun ni moksori seulpeun deut jjipurin neoui eolgul

     C       F              F                        C  
Eoneusae sarajin kkum angmongeul kkudeut ulbujitneun neo



C                   Bb
Sumanheun cheonsawa byeoldeuri naeryeowa

   F                          C
Ni mameul barkhyeojuneun i sungan

C                 Bb
Sumanheun yaegiwa sarangeul nanumyeo

  F                          C
Apgireul barkhyeojuneun i sungan



       C               F      F              C
Like a child just like heaven sesange peojil mellodi

       C               F      F                 C
Like a child just like heaven neol utge mandeul mellodi



           C                         F                 F         C
Challanhan mulgyeolcheoreom tteuneun taeyangcheoreom i areumdaun seonyuldeul

              C                     F               F         C
Pyeolchyeojin chowoncheoreom jineun noeulcheoreom i areumdaun paradise



       C               F      F                    C
Like a child just like heaven sikkeureoun sesang soge

       C               F      F                           C
Like a child just like heaven sangcheoreul gamssajul mellodi



           C                         F                 F         C
Challanhan mulgyeolcheoreom tteuneun taeyangcheoreom i areumdaun seonyuldeul

              C                     F               F         C
Pyeolchyeojin chowoncheoreom jineun noeulcheoreom i areumdaun paradise



       C               F      F              C
Like a child just like heaven sesange peojil mellodi

       C               F      F                 C
Like a child just like heaven neol utge mandeul mellodi


outro: e|-3-6-3---------4-----|---4---------3-6-6-6-|
       B|-------4---4-6---6---|-6---6---6-4---------|
       G|---------5---------6-|-------6-------------| x2
       D|---------------------|---------------------|
       A|---------------------|---------------------|
       E|---------------------|---------------------|

Добавлено: 09.02.2016
Другие материалы по этой песне:
  • Аккорды и текст

Страница создана 09.02.2016
http://primanota.ru/cnblue/like-a-child-chords.htm
Привет, Гость.
Предлагаем пройти революционный курс по гитаре.
Подарок от PrimaNota.Ru, забирай!