PrimaNota.ru - самый крупный в мире бесплатный архив песенных текстов, аккордов, табулатур и нот


Cmx - Pyorivat Sahkokoneet - таба, видео

Регистрация Запомнить меня
Войти через:  Facebook Google Twitter Vk Yandex Mail.ru

Cmx - Pyorivat Sahkokoneet - таба, видео

Печатать
Просмотров: 106
Song: Pyörivät Sähkökoneet
Album: Kolmikärki (1990)
Writers: A.W. Yrjänä

x = palm mute

E |----------------------------------------------------|
H |----------------------------------------------------|
G |--------------------------------------------2-2-2-2-|
D |-------------------5--5-------2-2-2-2-2-2-2-0-0-0-0-|
A |-------2-2-2-2-2-2-3--3-3-2-1-0-0-0-0-0-0-0---------|
E |-3-2-1-0-0-0-0-0-0----------------------------------|

E |------------------------------------------------------|
H |------------------------------------------------------|
G |----------------------------------------------2-2-2-2-|
D |---------------------5--5-------2-2-2-2-2-2-2-0-0-0-0-|
A |-------2-2-2-2-2-2-2-3--3-3-2-1-0-0-0-0-0-0-0---------|
E |-3-2-1-0-0-0-0-0-0-0----------------------------------|

E |------------------------------------------------------|
H |------------------------------------------------------|
G |----------------------------------------------2-2-2-2-|
D |---------------------5--5-------2-2-2-2-2-2-2-0-0-0-0-|
A |-------2-2-2-2-2-2-2-3--3-3-2-1-0-0-0-0-0-0-0---------|
E |-3-2-1-0-0-0-0-0-0-0----------------------------------|

E |----------------------------------------------|-----------------|
H |----------------------------------------------|-----------------|
G |----------------------------------------------|-2-2-2-2-2-2-2-2-|
D |---------------------5--5-------2-2-2-2-2-2-2-|-0-0-0-0-0-0-0-0-|
A |-------2-2-2-2-2-2-2-3--3-3-2-1-0-0-0-0-0-0-0-|-----------------|
E |-3-2-1-0-0-0-0-0-0-0--------------------------|-----------------|


(Solo)
E |---------------------------|---------------------------|
H |---------------------------|---------------------------|
G |---------------------------|---------------------------|
D |-7--7---5--5---5--5---5--5-|-7--7---5--5---5--5---5--5-|
A |-5--5-5-3--3-3-3--3-3-3--3-|-5--5-5-3--3-3-3--5-3-3--3-|
E |------3------1------1------|------3------1------1------|


Seisoo ku 7 tuomarismiestä...  Odottaa tulen syttyvän...
E |---------------------------|---------------------------|
H |---------------------------|---------------------------|
G |---------------------------|---------------------------|
D |-7--7---5--5---5--5---5--5-|-7--7---5--5---5--5---5--5-|
A |-5--5-5-3--3-3-3--3-3-3--3-|-5--5-5-3--3-3-3--5-3-3--3-|
E |------3------1------1------|------3------1------1------|


Silmät palavat kummaa valoa, vaahto hötkyy suolissa
E |-----------------------------------------------------------------|
H |-----------------------------------------------------------------|
G |-----------------------------------------------------------------|
D |-7-7-7-7-7-7-7-7-5-5-5-5-5-5-5-5---------------------------------|
A |-5-5-5-5-5-5-5-5-3-3-3-3-3-3-3-3-5-5-5-5-5-5-5-5-5-5-5-5-5-5-5-5-|
E |---------------------------------3-3-3-3-3-3-3-3-3-3-3-3-3-3-3-3-|
      x x x x x x     x x x x x x     x x x x x x x x x x x x x x x


Minä lopetan sinut
E |-------------|-------------|
H |-------4-----|-------------|
G |-----4---4---|-------3-----|
D |---4-------4-|-----4---4---|
A |-2-----------|---4-------4-|
E |-------------|-2-----------|


Minä lopetan sinut
E |-------------|-------------|
H |-------4-----|-------------|
G |-----4---4---|-------3-----|
D |---4-------4-|-----4---4---|
A |-2-----------|---4-------4-|
E |-------------|-2-----------|


Minä lopetan sinut
E |-------------|-------------|-------------------------|
H |-------4-----|-------------|-------------------------|
G |-----4---4---|-------3-----|-------------------------|
D |---4-------4-|-----4---4---|-6-6-6-6-6-6-6-6-6-6-6-6-|
A |-2-----------|---4-------4-|-4-4-4-4-4-4-4-4-4-4-4-4-|
E |-------------|-2-----------|-------------------------|
                                  x x x x x x x x x x x


Sieltä ne tulee, pyörivät sähkökoneet
E |------------------------------------------------------|
H |------------------------------------------------------|
G |----------------------------------------------2-2-2-2-|
D |---------------------5--5-------2-2-2-2-2-2-2-0-0-0-0-|
A |-------2-2-2-2-2-2-2-3--3-3-2-1-0-0-0-0-0-0-0---------|
E |-3-2-1-0-0-0-0-0-0-0----------------------------------|


Ne tuhoaa kaiken tullessaan tanssimaan
E |------------------------------------------------------|
H |------------------------------------------------------|
G |----------------------------------------------2-2-2-2-|
D |---------------------5--5-------2-2-2-2-2-2-2-0-0-0-0-|
A |-------2-2-2-2-2-2-2-3--3-3-2-1-0-0-0-0-0-0-0---------|
E |-3-2-1-0-0-0-0-0-0-0----------------------------------|

E |------------------------------------------------------|
H |------------------------------------------------------|
G |----------------------------------------------2-2-2-2-|
D |---------------------5--5-------2-2-2-2-2-2-2-0-0-0-0-|
A |-------2-2-2-2-2-2-2-3--3-3-2-1-0-0-0-0-0-0-0---------|
E |-3-2-1-0-0-0-0-0-0-0----------------------------------|

E |----------------------------------------------|-----------------|
H |----------------------------------------------|-----------------|
G |----------------------------------------------|-2-2-2-2-2-2-2-2-|
D |---------------------5--5-------2-2-2-2-2-2-2-|-0-0-0-0-0-0-0-0-|
A |-------2-2-2-2-2-2-2-3--3-3-2-1-0-0-0-0-0-0-0-|-----------------|
E |-3-2-1-0-0-0-0-0-0-0--------------------------|-----------------|


(Solo)
E |---------------------------|---------------------------|
H |---------------------------|---------------------------|
G |---------------------------|---------------------------|
D |-7--7---5--5---5--5---5--5-|-7--7---5--5---5--5---5--5-|
A |-5--5-5-3--3-3-3--3-3-3--3-|-5--5-5-3--3-3-3--5-3-3--3-|
E |------3------1------1------|------3------1------1------|


Jokainen meistä on katkera...  Ja runous nousee...
E |---------------------------|---------------------------|
H |---------------------------|---------------------------|
G |---------------------------|---------------------------|
D |-7--7---5--5---5--5---5--5-|-7--7---5--5---5--5---5--5-|
A |-5--5-5-3--3-3-3--3-3-3--3-|-5--5-5-3--3-3-3--5-3-3--3-|
E |------3------1------1------|------3------1------1------|


Minulla on outoja unia, meillä ei ole hampaita
E |-----------------------------------------------------------------|
H |-----------------------------------------------------------------|
G |-----------------------------------------------------------------|
D |-7-7-7-7-7-7-7-7-5-5-5-5-5-5-5-5---------------------------------|
A |-5-5-5-5-5-5-5-5-3-3-3-3-3-3-3-3-5-5-5-5-5-5-5-5-5-5-5-5-5-5-5-5-|
E |---------------------------------3-3-3-3-3-3-3-3-3-3-3-3-3-3-3-3-|
      x x x x x x     x x x x x x     x x x x x x x x x x x x x x x


Minä lopetan sinut
E |-------------|-------------|
H |-------4-----|-------------|
G |-----4---4---|-------3-----|
D |---4-------4-|-----4---4---|
A |-2-----------|---4-------4-|
E |-------------|-2-----------|


Minä lopetan sinut
E |-------------|-------------|
H |-------4-----|-------------|
G |-----4---4---|-------3-----|
D |---4-------4-|-----4---4---|
A |-2-----------|---4-------4-|
E |-------------|-2-----------|


Minä lopetan sinut
E |-------------|-------------|-------------------------|
H |-------4-----|-------------|-------------------------|
G |-----4---4---|-------3-----|-------------------------|
D |---4-------4-|-----4---4---|-6-6-6-6-6-6-6-6-6-6-6-6-|
A |-2-----------|---4-------4-|-4-4-4-4-4-4-4-4-4-4-4-4-|
E |-------------|-2-----------|-------------------------|
                                  x x x x x x x x x x x


Sieltä ne tulee, pyörivät sähkökoneet
E |------------------------------------------------------|
H |------------------------------------------------------|
G |----------------------------------------------2-2-2-2-|
D |---------------------5--5-------2-2-2-2-2-2-2-0-0-0-0-|
A |-------2-2-2-2-2-2-2-3--3-3-2-1-0-0-0-0-0-0-0---------|
E |-3-2-1-0-0-0-0-0-0-0----------------------------------|


Ne tuhoaa kaiken tullessaan tanssimaan
E |------------------------------------------------------|
H |------------------------------------------------------|
G |----------------------------------------------2-2-2-2-|
D |---------------------5--5-------2-2-2-2-2-2-2-0-0-0-0-|
A |-------2-2-2-2-2-2-2-3--3-3-2-1-0-0-0-0-0-0-0---------|
E |-3-2-1-0-0-0-0-0-0-0----------------------------------|


E |-------------------------------------------|
H |-------------------------------------------|
G |-----------------------------------2-2-2-2-|
D |----------5--5-------2-2-2-2-2-2-2-0-0-0-0-|
A |-------2--3--3-3-2-1-0-0-0-0-0-0-0---------|
E |-3-2-1-0-----------------------------------|

E |---------|
H |---------|
G |---------|
D |-------2-|
A |-3-2-1-0-|
E |---------|
Добавлено: 22.06.2012
Другие материалы по этой песне:
  • Аккорды и текст

Страница создана 22.06.2012
http://primanota.ru/cmx/pyorivat-sahkokoneet-chords.htm
Привет, Гость.
Предлагаем пройти революционный курс по гитаре.
Подарок от PrimaNota.Ru, забирай!