PrimaNota.ru - самый крупный в мире бесплатный архив песенных текстов, аккордов, табулатур и нот


Cmx - Ojai - аккорды и текст, видео

Регистрация Запомнить меня
Войти через:  Facebook Google Twitter Vk Yandex Mail.ru

Cmx - Ojai - аккорды и текст, видео

Печатать
Просмотров: 102
Ojai
Cmx

CMX - Ojai (Mesmeria)



Intro:

   Bm          A           G           A           Bm          A           G           A
e|-------7-----------7-----------5-----------9--7--------7-----------7-----------5-----------9--7--|
B|----------7-----------7-----------------------------------7-----------7--------------------------|
G|----7-----------7-----------7-----7-----9-----------7-----------7-----------7-----7-----9--------|
D|-9-----------7-----------------------7-----------9-----------7-----------------------7-----------|
A|-------------------------5-----------------------------------------------5-----------------------|
E|-------------------------------------------------------------------------------------------------|

   Bm          A           G           A           Bm          A           G           A
e|-------7-----------7-----------------------9--7--------7-----------7-----------------------9--7--|
B|----------7-----------7--------5--------------------------7-----------7--------5-----------------|
G|----7-----------7-----------7-----7-----9-----------7-----------7-----------7-----7-----9--------|
D|-9-----------7-----------------------7-----------9-----------7-----------------------7-----------|
A|-------------------------5-----------------------------------------------5-----------------------|
E|-------------------------------------------------------------------------------------------------|



Verse 1:

Em         C       Am
On aamu ja aurinko nousee
Em            C    Am
Pilvien takaa nauraen
Em           C        Am
Hän herää ja käteensä katsoo
G          D   C  *G/B
Löytää avaimen


Em          C         Am
Minä tiedän mitä minä tiedän
Em               C         Am
Laakson piilossa pensaiden takana on
Em              C         Am
Maahan kaivettu kultainen sormus
G           F7M  
Seassa ruusujen



Chorus:

A           Bm
Hän odottaa noutajaa
      G                  A
Jonka kauneutta ei kanna tämä maa
A           Bm
Hän odottaa rakastajaa
     G               F#m
Joka siiven kärjistä sormenpäihin
G            F#m
Unesta tehty on laulamaan


Bm   A   G   A
Bm   A   G   A



Verse 2:

Em         C        Am
On ilta ja lintujen lauluun
Em              C       Am
Katoaa rannasta lähtevä vene
Em              C       Am
Sumu peittää ja ympäröi maan
G                    D          C   G/B
Meidät on luotu vain uneksimaan


Em               C       Am
Puiden loistossa kohtalo täyttyy
Em             C        Am
Kalpeat huulet toisensa saa
Em               C        Am
Siellä on maahan kaivettu sormus
G                 F7M  
Maa joka unohtaa, vaikenee



Chorus:

A           Bm
Hän odottaa noutajaa
      G                  A
Jonka kauneutta ei kanna tämä maa
A           Bm
Hän odottaa rakastajaa
     G               F#m
Joka siiven kärjistä sormenpäihin
G            F#m
Unesta tehty on laulamaan


Bm   A   G   A
Bm   A   G   A


Verse 3:

Em              C        Am
Talvien iltoina suurissa tuvissa
Em               C         Am
Hankien keskellä kaivataan häntä
Em           C       Am
Joka ruusuna kesässä loisti
G               D           C   G/B
Tuulessa syksyn katosi pois


Em            C        Am
Naiset vanhat hinkuvin muistoin
Em             C        Am
Väkevän elämän maljasta juoneet
Em             C        Am
Hetken hiilenä hehkuvin sylein
G                  F7M  
Miettivät mikä sen tytön vei



Chorus:

A          Bm
Hän odotti noutajaa
      G                  A
Jonka kauneutta ei kanna tämä maa
A          Bm
Hän odotti rakastajaa
     G               F#m
Joka siiven kärjistä sormenpäihin
G             F#m
Silmänteristä rinnan liekkiin
G            F#m
Unesta tehty on laulamaan

A     Bm     G     A
A     Bm     G     F#m   G   F#m
Bm


*G/B
e|-----|
B|--0--|
G|--0--|
D|--0--|
A|--2--|
E|-----|


Olkaa hyvät, loistava biisi!
Добавлено: 18.07.2015
Вам также может быть интересно:
Другие материалы по этой песне:
  • Аккорды и текст

Страница создана 18.07.2015
http://primanota.ru/cmx/ojai-chords.htm
Привет, Гость.
Предлагаем пройти революционный курс по гитаре.
Подарок от PrimaNota.Ru, забирай!