PrimaNota.ru - самый крупный в мире бесплатный архив песенных текстов, аккордов, табулатур и нот


Cmx - Negatiivinen Alkusoitto - таба, видео

Регистрация Запомнить меня
Войти через:  Facebook Google Twitter Vk Yandex Mail.ru

Cmx - Negatiivinen Alkusoitto - таба, видео

Печатать
Просмотров: 101
Авторы музыки: CMX

NEGATIIVINEN ALKUSOITTO

Tabbed By Plikk


E|---------0-------------9---7---|
B|-------0---0---------6-6---6---|
G|-----6-------6-----7---7---7---| x2
D|---7-----------7-0-----0---0---|
A|-0-----------------------------|
E|-------------------------------|

E|-------3---0---0-----------------3---0---0-------------------------|
B|-----0-0---0---3-------0-------0-0---0---3-------0---------0-------|
G|---2---2---2---2-----6-------2---2---2---2---*-6---------6---------|
D|-3-----3---3---3---7-------3-----3---3---3---7---------7-----------| 
A|-----------------0-------------------------0---------0-------------|
E|---------------------------------------------------------------3-2-|

E|-------0---0-------------0---------------0---0----------0---------|
B|-------0---0-----------0-0---------------0---0--------0-0---0-----|
G|-------0---0---0-----2---2---2-----------0---0------2---2---2-----|
D|-----2-2---2---2-2/4-----4-------------2-2---2---2/4--------------|
A|---2---2---2---2---------------------2---2---2--------------------|
E|-0-----0---0-------------------3-2-0-----0---0----------------3-2-|

E|-------0---0-------------0---------------------------------------|
B|-------0---0-----------0-0-----0---------0-------0-----------0---|
G|-------0---0---0-----2---2-----2-------4-------7-----4-----6-----|
D|-----2-2---2---2-2/4---------4-----4/5-----5/7-----5-----7-------|
A|---2---2---2-------------------------------------------0---------|
E|-0-----0---0-----------------------------------------------------|

E|-------------------------3---0---0---0---|
B|-------0-------0---------0---0---3---0---|
G|-----4-------7-----4---2-2---2---2---6---|
D|-4/5-----5/7-----5---3---3---3---3---7---|
A|-------------------------------------0---|
E|-----------------------------------------|
Добавлено: 04.05.2012
Другие материалы по этой песне:
  • Аккорды и текст

Страница создана 04.05.2012
http://primanota.ru/cmx/negatiivinen-alkusoitto-chords.htm
Привет, Гость.
Предлагаем пройти революционный курс по гитаре.
Подарок от PrimaNota.Ru, забирай!