PrimaNota.ru - самый крупный в мире бесплатный архив песенных текстов, аккордов, табулатур и нот


Cmx - Lepattajat - таба, бас-таба, видео

Регистрация Запомнить меня
Войти через:  Facebook Google Twitter Vk Yandex Mail.ru

Cmx - Lepattajat - таба, бас-таба, видео

Печатать
Просмотров: 165
CMX - Lepattajat
----------------
Tabbed By Plikk

Dropped-D
x = dempattu


E |-------|
B |-------|
G |-------|
D |5-5----|
A |5-5----|
D |5-5----|

alku:

E |----------------------------------------------------|
B |----------------------------------------------------|
G |----------------------------------------------------|
D |5-5--3-5--3--5-5--3-5--3--5-5--3-5--3--5-5--3-5--3--|
A |5-5--3-5--3--5-5--3-5--3--5-5--3-5--3--5-5--3-5--3--|
D |5-5--3-5--3--5-5--3-5--3--5-5--3-5--3--5-5--3-5--3--|
  toistuu


verse:

E |-------------------------------------------------------|
B |-------------------------------------------------------|
G |-------------------------------------------------------|
D |---------------------------------------------------0---|
A |---------------------------------------------------0---|
D |5-5--3-5--3--5-5--3-5--3--5-5--3-5--3--5-5--3--5-6-0---|


bridge1 (ensimmäisellä kerralla):

E |----------------------------------------------------------------|
B |----------------------------------------------------------------|
G |----------------------------------------------------------------|
D |1-1-1-1-1-1-1-1-0-0-0-0-0-0-0-0-5-5-5-5-5-5-5-5-3-3-3-3-3-3-3-3-|
A |1-1-1-1-1-1-1-1-0-0-0-0-0-0-0-0-5-5-5-5-5-5-5-5-3-3-3-3-3-3-3-3-|
D |1-1-1-1-1-1-1-1-0-0-0-0-0-0-0-0-5-5-5-5-5-5-5-5-3-3-3-3-3-3-3-3-|
   x x x x x x x x x x x x x x x x x x x x x x x x x x x x x x x x

E |--------------------------------|
B |--------------------------------|
G |--------------------------------|
D |1-1-1-1-1-1-1-1-0-0-0-0-0-0-0-0-|
A |1-1-1-1-1-1-1-1-0-0-0-0-0-0-0-0-|
D |1-1-1-1-1-1-1-1-0-0-0-0-0-0-0-0-|
   x x x x x x x x x x x x x x x x 

   

bridge2 (toisella kerralla):

E |-----------------------------------------------------|
B |-----------------------------------------------------|
G |-----------------------------------------------------|
D |1-1-1-1------0-0-0-0------5-5-5-5------3-3-3-3-------|
A |1-1-1-1------0-0-0-0------5-5-5-5------3-3-3-3-------|
D |1-1-1-1------0-0-0-0------5-5-5-5------3-3-3-3-------|
   x x x        x x x        x x x        x x x

E |--------------------------|
B |--------------------------|
G |--------------------------|
D |1-1-1-1------0-0-0-0------|
A |1-1-1-1------0-0-0-0------|
D |1-1-1-1------0-0-0-0------|
   x x x        x x x        


bridge3 (kolmannella kerralla):

E |----------------------------------------------|
B |----------------------------------------------|
G |----------------------------------------------|
D |1-------0-------5-------3-------1------0------|
A |1-------0-------5-------3-------1------0------|
D |1-------0-------5-------3-------1------0------|


"kertsi":

E |---------------------------|
B |---------------------------|
G |---------------------------|
D |5-5-5-3-3-3-2-2-2-1--1--1--|
A |5-5-5-3-3-3-2-2-2-1--1--1--|
D |5-5-5-3-3-3-2-2-2-1--1--1--|
   neljännellä kerralla jatkaa ykkösvälistä muutaman kerran.


outo väliriffi:

E |------------------|
B |------------------|
G |------------------|
D |5--3--4--2--3--1--|
A |5--3--4--2--3--1--|
D |5--3--4--2--3--1--|


loppuriffi:

E |------------------------------
B |------------------------------
G |------------------------------
D |3-5--3-5--3-5--3-5--3-5--3-5--
A |3-5--3-5--3-5--3-5--3-5--3-5--
D |3-5--3-5--3-5--3-5--3-5--3-5--
  toistuu biisin loppuun asti..

väliosio:
Hm D G A



rakenne:

alku  x 4
verse x 4
bridge1
alku  x 2
verse x 2
bridge2
"kertsi"
alku  x 2
outo väliriffi
verse x 2
bridge3
"kertsi"
väliosio (ei näissä tabuissa)
outo väliriffi
loppuriffi
Добавлено: 20.05.2012
Другие материалы по этой песне:
  • Аккорды и текст

Страница создана 14.05.2012
http://primanota.ru/cmx/lepattajat-chords.htm
Привет, Гость.
Предлагаем пройти революционный курс по гитаре.
Подарок от PrimaNota.Ru, забирай!