PrimaNota.ru - самый крупный в мире бесплатный архив песенных текстов, аккордов, табулатур и нот


Cmx - Laavaa - аккорды и текст, видео

Регистрация Запомнить меня
Войти через:  Facebook Google Twitter Vk Yandex Mail.ru

Cmx - Laavaa - аккорды и текст, видео

Печатать
Просмотров: 232
Уроки эстрадного вокала в Санкт-Петербурге
Laavaa
Cmx
CMX - Laavaa (Mesmeria)



Intro:

e|-12-12-12-12-12-12-12-12-12----------------------12-12-11-11-12-12-11-11-11-11-11-11-11-11-11-11--|
B|-14-14-14-14-14-14-14-14-14-12-12-12-12-12-12-12-14-14-14-14-14-14-14-14-14-12-12-12-12-12-12-12--|
G|-14-14-14-14-14-14-14-14-14-13-13-13-13-13-13-13-13-13-13-13-13-13-13-13-13-13-13-13-13-13-13-13--|
D|----------------------------14-14-14-14-14-14-14--------------------------------------------------|
A|--------------------------------------------------------------------------------------------------|
E|--------------------------------------------------------------------------------------------------|

   A5                         E5                   C#5                        G#5
e|-12-12-12-12-12-12-12-12-12----------------------12-12-11-11-12-12-11-11-11-11-11-11-11-11-11-11--|
B|-14-14-14-14-14-14-14-14-14-12-12-12-12-12-12-12-14-14-14-14-14-14-14-14-14-12-12-12-12-12-12-12--|
G|-14-14-14-14-14-14-14-14-14-13-13-13-13-13-13-13-13-13-13-13-13-13-13-13-13-13-13-13-13-13-13-13--|
D|----------------------------14-14-14-14-14-14-14--------------------------------------------------|
A|--------------------------------------------------------------------------------------------------|
E|--------------------------------------------------------------------------------------------------|

   A5                         E5                   C#5                        G#5                     Em
e|-12-12-12-12-12-12-12-12-12----------------------12-12-11-11-12-12-11-11-11-11-11-11-11-11-11-11--|
B|-14-14-14-14-14-14-14-14-14-12-12-12-12-12-12-12-14-14-14-14-14-14-14-14-14-12-12-12-12-12-12-12--|
G|-14-14-14-14-14-14-14-14-14-13-13-13-13-13-13-13-13-13-13-13-13-13-13-13-13-13-13-13-13-13-13-13--|
D|----------------------------14-14-14-14-14-14-14--------------------------------------------------|
A|--------------------------------------------------------------------------------------------------|
E|--------------------------------------------------------------------------------------------------|



Verse 1:

Dm          A#
Meren syvän pinnan alla
Am           C
Jokin kuumaa virta liikahtaa
Dm                A#
Päästää käärmeet, madot irti
   Am             C
Ja myrskyn suuren nousemaan saa
Dm            A#
Nyt on aallot suuren suuret
Am        C
Meri kallioihin kirjoittaa
Dm         A#
Nimiä niin muinaisia
Am         C
Että kivet hajoaa


C#m
On kuin jokin vieras kuu
    G#m
Ois äsken kulkenut kasvoillasi
C#m
On kuin oisin kuullut kieltä
     G#m
Jota mielipuolet vain ymmärtää
Cm
On kuin vaihtanut ois paikkaa
Gm          G#
Sydän rinnassa
C#m
On kuin jokin vieras kuu
     G#m
Olis äsken kulkenut kasvoillasi
     Em
Niin julmana



Chorus:

A5   E5         C#5
On sydän täynnä laavaa
   G#5          A5
Se palaa rinnassaan
    E5       C#5
Se ihon läpi polttaa
   G#5         A5
Ja itkee murheitaan
     E5          C#5          
On sydän pelkkää haavaa
   G#5         A5
Se palaa, kiduttaa
   E5           C#5
Se hehkuu ja se vaatii
   G#5          Em
Se hullu laskee omiaan



Verse 2:

Dm         A#
Hylättyjen armeijassa
Am        C
Väkiäinen huutaa kostoaan
Dm           A#
Vannoo terän kylmän nimeen
Am          C
Itkee ilman omaa ruumistaan
Dm      A#          Am
Ikuisen vihan päivä pian
          C
Se meidän yllemme lankeaa
Dm        A#
Ja portit murtuu tieltä
Am         C
Vanhimpien vaistojen


C#m
On kuin jokin vieras kuu
    G#m
Ois äsken kulkenut kasvoillasi
C#m
On kuin oisin kuullut kieltä
     G#m
Jota mielipuolet vain ymmärtää
Cm
On kuin vaihtanut ois paikkaa
Gm          G#
Sydän rinnassa
C#m
On kuin jokin vieras kuu
     G#m
Olis äsken kulkenut kasvoillasi
     Em
Niin julmana



Chorus:

A5   E5         C#5
On sydän täynnä laavaa
   G#5          A5
Se palaa rinnassaan
    E5       C#5
Se ihon läpi polttaa
   G#5         A5
Ja itkee murheitaan
     E5          C#5          
On sydän pelkkää haavaa
   G#5         A5
Se palaa, kiduttaa
   E5           C#5     G#5
Se hehkuu ja se vaatii


A  E            C#m    G#m
On sydän täynnä laavaa
A  E         C#m     G#m
Se ihon läpi polttaa


A5   E5  C#5  G#5
A5   E5  C#5  G#5


A5   E5         C#5
On sydän täynnä laavaa
   G#5          A5
Se palaa rinnassaan
    E5       C#5
Se ihon läpi polttaa
   G#5         A5
Ja itkee murheitaan
     E5          C#5          
On sydän pelkkää haavaa
   G#5         A5
Se palaa, kiduttaa
   E5           C#5
Se hehkuu ja se vaatii
   G#5          Em
Se hullu laskee omiaan



Olkaatten hyvät, enjoy!  Great music!
Добавлено: 18.07.2015
Вам также может быть интересно:
Другие материалы по этой песне:
  • Аккорды и текст

Страница создана 18.07.2015
http://primanota.ru/cmx/laavaa-chords.htm
Привет, Гость.
Предлагаем пройти революционный курс по гитаре.
Подарок от PrimaNota.Ru, забирай!