PrimaNota.ru - самый крупный в мире бесплатный архив песенных текстов, аккордов, табулатур и нот


Clutch - Sleestak Lightning - таба, видео

Регистрация Запомнить меня
Войти через:  Facebook Google Twitter Vk Yandex Mail.ru

Clutch - Sleestak Lightning - таба, видео

Печатать
Просмотров: 183
-------------------------------------------------------------------------------
                         SLEESTAK LIGHTNING - Clutch
-------------------------------------------------------------------------------
Tabbed by: ET
Email: slatedale09@yahoo.com

Tuning: Standard

These are just the basic riffs. Play around and see what you can get out of it.

e|---------------------------------------------------------------------------|
B|----11--13p11--11----------------------------------------------------------|
G|--12--12-----12--12-12-10-10-8----8----8-----------------------------------|
D|-------------------------------10---10-------------------------------------|
A|---------------------------------------------------------------------------|
E|---------------------------------------------------------------------------|

e|---------------------------------------------------------------------------|
B|----11--13p11--11----------------------------------------------------------|
G|--12--12-----12--12-12-10-10-8----8----------------------------------------|
D|-------------------------------10------------------------------------------|
A|---------------------------------------------------------------------------|
E|---------------------------------------------------------------------------|

e|-------------|-------------------------------------------------------------|
B|-------------|-------------------------------------------------------------|
G|-------8-----|-------------------------------------------------------------|
D|--8-10---10--|-------------------------------------------------------------|
A|-------------|------6------------------------------------------------------|
E|-------------|--6-8---8----------------------------------------------------|

e|------------------------------|--------------------------------------------|
B|------------------------------|--------------------------------------------|
G|------------------------------|--b10---------------------------------------|
D|------------------------------|------10-b10-----8-10-b10-------------------|
A|----6------6------6------6----|--------------------------------------------|
E|--6---8--6---8--6---8--6---8--|--------------------------------------------|


************************************

| /   slide up
| \   slide down
| h   hammer-on
| p   pull-off
| ~   vibrato
| +   harmonic
| x   Mute note
| b   Bend
| pb  Pre-bend
| br  Bend release
| pbr Pre-bend release
| brb Bend release bend

************************************
Добавлено: 04.04.2012
Другие материалы по этой песне:
  • Аккорды и текст

Страница создана 04.04.2012
http://primanota.ru/clutch/sleestak-lightning-chords.htm
Привет, Гость.
Предлагаем пройти революционный курс по гитаре.
Подарок от PrimaNota.Ru, забирай!