PrimaNota.ru - самый крупный в мире бесплатный архив песенных текстов, аккордов, табулатур и нот


Clutch - Red Horse Rainbow - текст песни, таба, бас-таба, видео

Регистрация Запомнить меня
Войти через:  Facebook Google Twitter Vk Yandex Mail.ru

Clutch - Red Horse Rainbow - текст песни, таба, бас-таба, видео

Печатать
Просмотров: 202
Intro riff:

E-----------------------------------------------|
B-----------------------------------------------|
G----------------------------------------9------|
D----------------------------------------9-v----|
A-------2---4-------7---9-------9H--11----------|
E---4-------------------------------------------|

Second Guitar, Could be Wino Weinrich:

E------------------------------------------------|
B------------------------------------------------|
G----------------------------------------9-------|
D------4---6-----------------------------9-V-----|
A--6---2---4-------7---9--------9H--11-----------|
E--4---------------------------------------------|

Weird octave riff:

E-------------------------------------------------------------------|
B--------------------5----------------------------------------------|
G--6-(6)-----*-44444-----6---9-(9)----11-(11)-----9-/---6---(6)-----|
D--X-------------------------x--------x-----------X-----x-----------|
A--4-(4)---------------------7-(7)----9--(9)------7-/---4---(4)-----|
E-------------------------------------------------------------------|
*Repeat and improvise

Pre-chorus riff

E---------------------------------------------------------------------|
B-------------------------9---11--------------------------9--9--------|
G-------------------------9---11--------------------------9--9--------|
D--11V--9------9----11V-------------11V--9------9---11V---9-----------|
A----------11-------------------------------11------------------------|
E---------------------------------------------------------------------|

Chorus: "Only Red Horse Rainbows can save us?"

E------------------------------------------------------ --------------------|
B------------------------9----------11---9-11---9------ -11---9-------------|
G------------------------9b*--------11b--9-11b--9------ -11b--9---9--11-----|
D-------------9---11-----------11---------------------- ----------9--11-----|
A--9----11--------------------------------------------- --------------------|
E--7----9---------------------------------------------- --------------------|
* Bend and release
Second ending

Outro riffs

E-----------------------------------------------------------------------|
B-----------------------------------------------------------------------|
G-----------------------------------------------------------------------|
D-------------------------------------------7----------------7----------|
A-------7---------------7---------------99------979797----99----979797--|
E---99-----979797----99----979797---------------------------------------|


    Dig in...
Добавлено: 22.05.2012
Другие материалы по этой песне:
  • Аккорды и текст

Страница создана 22.05.2012
http://primanota.ru/clutch/red-horse-rainbow-chords.htm
Привет, Гость.
Предлагаем пройти революционный курс по гитаре.
Подарок от PrimaNota.Ru, забирай!