PrimaNota.ru - самый крупный в мире бесплатный архив песенных текстов, аккордов, табулатур и нот


Clutch - Rats1 - бас-таба, видео

Регистрация Запомнить меня
Войти через:  Facebook Google Twitter Vk Yandex Mail.ru

Clutch - Rats1 - бас-таба, видео

Печатать
Просмотров: 92


Clutch
Rats
Transnational Speedway League

tabbed by Tom Gibson 
email: tom gibson at g mail dot com  
web:   tsioc.net

I generally don't tab out techniques like hammer-ons and pull-offs, 
because I think you'll find it slightly more rewarding to figure those 
little details out on your own.  Just listen to the song to know 
when and how to play each riff.

Please email me if you have any questions or find any errors.  Have fun 


main riff

G----------------------------------
D----------------------------------
A--5-----7-----5-----7-----5---4---
E----0-----0-----0-----0-----0---0-




riff 2 - and to think that this was once my home...

G----------------------------------
D----------------------------------
A--7---7---7---7---7---7---7---7---
E----------------------------------




riff 3 - in the doorway is a cutaway of flesh and bone...

G----------------------------------
D----------------------------------
A----------------------------------
E--0-0-0-0-0-0-0-0-0-0-0-0-0-0-0-0-




Добавлено: 19.09.2013
Другие материалы по этой песне:
  • Аккорды и текст

Страница создана 19.09.2013
http://primanota.ru/clutch/rats1-chords.htm
Привет, Гость.
Предлагаем пройти революционный курс по гитаре.
Подарок от PrimaNota.Ru, забирай!