PrimaNota.ru - самый крупный в мире бесплатный архив песенных текстов, аккордов, табулатур и нот


Clutch - Raised By Horses - текст песни, таба, видео

Регистрация Запомнить меня
Войти через:  Facebook Google Twitter Vk Yandex Mail.ru

Clutch - Raised By Horses - текст песни, таба, видео

Печатать
Просмотров: 143
In my opinion, this is one of Clutchs' best songs--a tirade against record
  company execs and all that crap.  Any old guitar and amp will do, but for optimum
  sound reproduction, you'll need a 74' Gibson SG and a 120 watt Orange head and
  4x12 cabinet.  Transcribed By: Keith S. Byers (sreybk@yahoo.com)

  This is the first riff: w/wah
  Play 8 times. I know, I know, there's some background
  noodling, but it shouldn't be too hard to figure out.

 E -----------------------------------------|
 B -----------------------------------------|
 G -----------------------------------------|
 D -----------------------------------------|
 A -3-3------3--------5b---3-3-----3-----5b-|
 E -------5-----5---------------5----5------|

  Pretty crunchy chord riff:
  Play 4 times.
 E--------------------------------------------------------|
 B--------------------------------------------------------|
 G--------------------------------------------------------|
 D--5//----7-7-7---------5//----7-7-7---------7--5---7--5-|
 A--5//----7-7-7---------5//----7-7-7---------5--3---5--3-|
 E--3//----5-5-5---------3//----5-5-5---------------------|

 Bridge Riff, very cool:
 Play second part 2 times

 E-------------------------------------------------------------------------|
 B-------------------------------------------------------------------------|
 G-------------------------------------------------------------------------|
 D---5/-7/--5--------------------------7--------5--------------------------|
 A--------------7/-5/-3------------3-3-5------3-3------3----5b-3---5/-7-/5-|
 E--------------------------5-3-5---------3-5------3-5-----------5---------|

 E- ---------|
 B-----------|
 G-----------|
 A--3--------|
 E-----5---3-|

 Chorus riff:
 Play first part four times and last part once.

 E------------------------------------------------------------------------|
 B------------------------------------------------------------------------|
 G------------------------------------------------------------------------|
 D-------------------------------------------------------77-66--5---------|
 A------3------------5-3--------------5-3----3----------------------------|
 E--5-5---5-3-5-3-5-------5-5-3-5-3-------5----5-3------------------------|

 The riffs don't change, only the counts so listen to the song closely.

 Raised By Horses:

 I was eating dinner at the table, with people from the music industry,
 They asked me if I liked it in "The City." I said I liked it better in
 the country.
 The label representative asked me what about it most appealed to me.
 "I love to listen to the yellowhammer singing 'a little bit of bread
 and no cheese'."

 Then I comenced to do a tap dance on eggplant parmesan before their eyes.
 Guided by voices, whole bag of trick.  Raised by Druids and Horses.

 (Then I told them):

 "Never underestimate the power of love.  You dig my new horsehoes?
  Never underestimate the power of love."

  "Come here quickly, he's lost his mind!"

 "Frightened? Well, I'm not surprised, you've never seen the likes of me.
  Check it, I want a big fat advance and my alfalfa free!"

  "Come here quickly, he's lost his mind!"

  The manager removed from the restaurant.  A crowd got to gathering around.
  I said, "You can throw a man out on his ear, but you can't keep a good horse
  down!"
  Mounted police sprung to action.  Never cut me any bit of slack.  But I wasn't
  going anywhere 'til they got off my brother's back.
Добавлено: 14.06.2012
Другие материалы по этой песне:
  • Аккорды и текст

Страница создана 14.06.2012
http://primanota.ru/clutch/raised-by-horses-chords.htm
Привет, Гость.
Предлагаем пройти революционный курс по гитаре.
Подарок от PrimaNota.Ru, забирай!