PrimaNota.ru - самый крупный в мире бесплатный архив песенных текстов, аккордов, табулатур и нот


Clutch - Promoter Of Earthbound Causes - текст песни, таба, бас-таба, видео

Регистрация Запомнить меня
Войти через:  Facebook Google Twitter Vk Yandex Mail.ru

Clutch - Promoter Of Earthbound Causes - текст песни, таба, бас-таба, видео

Печатать
Просмотров: 157
-----------------------------------------------------------------------------
                Promoter (of Earthbound Causes) - Clutch
-----------------------------------------------------------------------------
Tabbed by:Murzain
Email:murzain@gmail.com

Tuning:Standard

This is my second tab and its pretty easy but fun to play. This song 
sounds really cool if you use a lot of wah and overdrive. 
Keep in mind that my timing on the tab isn't perfect. 
You'll just have to listen and use common sense for that. 
Also, the amount of 7979797 in the solo isn't exact.
Its just to give you an idea of what he's doing.

Also, i think part 2 of verse two might be playing the riff in power chords.

The song starts with a bit of playing with the volume knob. 
Keep your index finger on the second fret of the low E string while you do this. 

After about 5 seconds of that, the intro starts.

Intro 1/Main Riff
e|--------------------------------------------------------------------------|
B|--------------------------------------------------------------------------|
G|--------------------------------------------------------------------------|
D|--------------------------------------------------------------------------|
A|--------------------------------------------------------------------------|
E|--0--2--0--2~----0--2--0--2--5-----0--2--0--2~---0-2-2-0-2-2-0------------|

e|--------------------------------------------------------------------------|
B|--------------------------------------------------------------------------|
G|--------------------------------------------------------------------------|
D|--------------------------------------------------------------------------|
A|---------------------------------------------------4-4-2-0----------------|
E|--0--2--0--2~----0--2--0--2--5-----0--2--0--2~---0----------2--0----------|


Intro 2/Verse Fill
e|--------------------------------------------------------------------------|
B|--------------------------------------------------------------------------|
G|--------------------------------------------------------------------------|
D|-----------------------------2--------------------------------------------|
A|-----4-----4~-------4-----4--0--------4-----4~-----4-4---4-4--------------|
E|--0--2--0--2~----0--2--0--2--------0--2--0--2~---0-2-2-0-2-2-0------------|

e|--------------------------------------------------------------------------|
B|--------------------------------------------------------------------------|
G|--------------------------------------------------------------------------|
D|-----------------------------2--------------------------------------------|
A|-----4-----4~-------4-----4--0--------4-----4~-----4-4-2-0----------------|
E|--0--2--0--2~----0--2--0--2--------0--2--0--2~---0----------2--0----------|





Verse Part 1 
e|---------------------------------------------------9-9-9------------------|
B|------------------------------------------------\9--9-9-9-----------------|
G|--------------------------------------------------------------------------|
D|---------------------4--(4)--2--4-4-----6--(6)--------------.-------------|
A|--4--(4)--2--4-4-----2--(2)--0--2-2-----4--(4)--------------4--2--4--4----|
E|--2--(2)--0--2-2--------------------------------------------2--0--2--2----|


Verse Part 2
e|--------------------------------------------------------------------------|
B|--------------------------------------------------------------------------|
G|--------------------------------------------------------------------------|
D|--------------------------------------------------------------------------|
A|--------------------------------------------------------------------------|
E|--0--2--0--2~----0--2--0--2--5-----0--2--0--2~---0-2-2-0-2-2-0------------|

e|--------------------------------------------------------------------------|
B|--------------------------------------------------------------------------|
G|--------------------------------------------------------------------------|
D|--------------------------------------------------------------------------|
A|--------------------------------------------------------------------------|
E|--0--2--0--2~----0--2--0--2--5--------------------------------------------|





Chorus
e|--------------------------------------------------------------------------|
B|--------------------------------------------------------------------------|
G|--------------------------------------------------------------------------|
D|------------------------------------10-9-7-7-7-7-7------------------------|
A|--7--7--9--9--9-----7--7--9--9--9----8-7-5-5-5-5-5-7-7-7-7-9-9-9----------|
E|--5--5--7--7--7-----5--5--7--7--7------------------5-5-5-5-7-7-7----------|





Solo 
e|--------------------------------------------------------------------------|
B|--------------------------------------------------------------------------|
G|--------------------------------------------------------------------------|
D|-----------------9-9-7-9-7b---------------------9-9-7-9-7b----------------|
A|-7979797979797--------------9----7979797979797----------------------------|
E|--------------------------------------------------------------------------|

e|--------------------------------------------------------------------------|
B|--------------------------------------------------------------------------|
G|--------------------------------------------------------------------------|
D|-----------------9-9-7-9-7b----------------------------9b-----------------|
A|-7979797979797--------------9----7979797979797---7-7-9--------------------|
E|--------------------------------------------------------------------------|

(These two lines are tremolo picked) 
e|--------------------------------------------------------------------------|
B|--------------------------------------------------------------------------|
G|-9--12--11--10--9------9--12--11--10--9------9--12--11--10--9-------------|
D|--------------------------------------------------------------------------|
A|-7--10---9---8--7------7--10---9---8--7------7--10---9---8--7-------------|
E|--------------------------------------------------------------------------|

e|--------------------------------------------------------------------------|
B|--------------------------------------------------------------------------|
G|-9--12----14b-------------------------------------------------------------|
D|--------------------------------------------------------------------------|
A|-7--10----12b-------------------------------------------------------------|
E|--------------------------------------------------------------------------|





Outro
e|--------------------------------------------------------------------------|
B|--------------------------------------------------------------------------|
G|--------------------------------------------------------------------------|
D|-10--9--7-----7--6--5-----------------------------------------------------|
A|-8---7--5-----5--4--3----7--7/9-9-9-7-9\--Slide-to-open-------------------|
E|-------------------------5--5/7-7-7-5-7\----------------------------------|




Order:
Intro 1
Intro 2/Verse Fill
Verse Pt. 1
Intro 2/Verse Fill
Verse Pt. 2
Chorus X 3
Verse Pt. 1
Intro 2/Verse Fill
Verse Pt. 2
Chorus X 3
Solo
Chorus X 3
Outro

************************************

| .   staccato 
| /   slide up
| \   slide down
| h   hammer-on
| p   pull-off
| ~   vibrato
| +   harmonic
| x   Mute note
| b   Bend
| pb  Pre-bend
| br  Bend release
| pbr Pre-bend release
| brb Bend release bend

************************************
Добавлено: 17.03.2012
Другие материалы по этой песне:

Страница создана 17.03.2012
http://primanota.ru/clutch/promoter-of-earthbound-causes-chords.htm
Привет, Гость.
Предлагаем пройти революционный курс по гитаре.
Подарок от PrimaNota.Ru, забирай!