PrimaNota.ru - самый крупный в мире бесплатный архив песенных текстов, аккордов, табулатур и нот


Clutch - Oregon - таба, видео

Регистрация Запомнить меня
Войти через:  Facebook Google Twitter Vk Yandex Mail.ru

Clutch - Oregon - таба, видео

Печатать
Просмотров: 153
Авторы: Clutch

Here we go with another wonderful Clutch Transcription.  This song came from the
 demo for the forthcoming album "Slow Hole To China." Dial in a good fuzz tone for
 "Oregon" and it might help if you switch to your neck pickup.

  Oregon written by Clutch    Transcribed by Keith S. Byers (sreybk@yahoo.com)

   Main Riff:

  E----------------------------------------------------------------------|
  B----------------------------------------------------------------------|
  G----------------------------------------------------------------------|
  D----------------------------------------------------------------------|
  A----7B*-5-7-5---------------------------7B--5-7-5---------------------|
  E--------------7--5--5-5--7---5-5--7---------------7--5--2--5-7--2-5-7-|

         * Bend and release

   Bridge Riff:

  E--------------------|
  B--------------------|
  G--------------------|
  D--12--12---9-(9)----|
  A--12--12---9-(9)----|
  E--10--10---7-(7)----|

  King of the Dragon Men Breakdown:


  E----------------------------------------------|
  B----------------------------------------------|
  G----------------------------------------------|
  D--9-9--9-9-9-9-9---14\---12-12----7-7-7--9----|
  A--9-9--9-9-9-9-9---14\---12-12----7-7-7--9----|
  E--7-7--7-7-7-7-7---12\---10-10----5-5-5--7----|
Добавлено: 23.05.2012
Другие материалы по этой песне:
  • Аккорды и текст

Страница создана 11.05.2012
http://primanota.ru/clutch/oregon-chords.htm
Привет, Гость.
Предлагаем пройти революционный курс по гитаре.
Подарок от PrimaNota.Ru, забирай!