PrimaNota.ru - самый крупный в мире бесплатный архив песенных текстов, аккордов, табулатур и нот


Clutch - Never Be Moved - текст песни, таба, видео

Регистрация Запомнить меня
Войти через:  Facebook Google Twitter Vk Yandex Mail.ru

Clutch - Never Be Moved - текст песни, таба, видео

Печатать
Просмотров: 164
Авторы: Clutch

-------------------------------------------------------------------------------
                             Never Be Moved - Clutch
-------------------------------------------------------------------------------
Tabbed by: Ixelion
Email: ixelion11@gmail.com

Tuning: Standard

Riff 1
e|---------------------------------------------------------------------------|
B|---------------------------------------------------------------------------|
G|-----------------4---------------------------------------------------------|
D|-4-2--0--2--0--------------------------------------------------------------|
A|---------------2-----------------------------------------------------------|
E|---------------------------------------------------------------------------|

Riff 2
e|---------------------------------------------------------------------------|
B|---------------------------------------------------------------------------|
G|---------------------------------------------------------------------------|
D|---------------------------------------------------------------------------|
A|-9-9--12-9--9-9--12-9--9-9-12-9-9-9-12-12-12-9-----------------------------|
E|-7-7--10-9--7-7--10-7--7-7-10-7-7-7-10-10-10-7-----------------------------|
Добавлено: 05.07.2012
Другие материалы по этой песне:
  • Аккорды и текст

Страница создана 01.04.2012
http://primanota.ru/clutch/never-be-moved-chords.htm
Привет, Гость.
Предлагаем пройти революционный курс по гитаре.
Подарок от PrimaNota.Ru, забирай!