PrimaNota.ru - самый крупный в мире бесплатный архив песенных текстов, аккордов, табулатур и нот


Clutch - Muchas Veces - текст песни, бас-таба, видео

Регистрация Запомнить меня
Войти через:  Facebook Google Twitter Vk Yandex Mail.ru

Clutch - Muchas Veces - текст песни, бас-таба, видео

Печатать
Просмотров: 185
Авторы: Clutch

Band: Clutch
Song: Muchas Veces
Tabber: ChristianMF

GEEEEZZZZ what a marathon to tab... so many little changes....
anyway

If you see a | or \ in there, it just means it's a downbeat, to help with timing

Every 8 hyphens is a downbeat. I made sure the downbeats are accurate.
If you see a "g" on top of a note, that means it's a grace note.

Don't be afraid to send in corrections to christianfournet@hotmail.com. On top of me 
messing up a note or two, I probably have some typos in there...
It was just sooooo long and sooooo many notes.

Any other tab requests, just e-mail me.

Intro		@0:01
  g
G-|--------------------------------|--------------------------------|
D-46-4---2-4-----2-------2---------|--------------------------------|
A-|----------------4-------4-------|----2---------------------------|
E-|--------------------------------|----------------4-------------2-|


      Intro	@0:04
G-|--------------------------------|--------------------------------|
D-|--------------------------------|--------2-----4-2-------2-------|
A-|--------2-------2-------------2-|4---------------------4---------|
E-|4-------------4-----------------|--------------------------------|


      Intro	@0:07
G-|--------------------------------|--------------------------------|
D-|--------------------------------|--------------------------------|
A-|----4-----------2-------2-------|----4-------------------5-----4-|
E-|----------------------4---------|--------------------------------|


      Verse pt. 1
G-|--------------------------------|--------------------------------|
D-|--------------------------------|--------------------------------|
A-|2-----4-|-------|-------|-------||-------|-------|-------5-----4-|
E-|--------------------------------|--------------------------------|


      Verse pt.1	@0:13
G-|--------------------------------|--------------------------------|
D-|------------------------4-----6-|4-------------2-4-----2---------|
A-|2-----4-|-------|---------------|------------------------4-------|
E-|--------------------------------|--------------------------------|


      Verse Pt. 1
G-|--------------------------------|--------------------------------|
D-|--------------------------------|----2---|-----------------------|
A-|4-------4-------4-----2---------|2-4-------------4-----2-------2-|
E-|------------------------0-----0-|------------------------0-------|


      Verse pt. 1                   Verse Pt. 2
G-|--------------------------------|--------------------------------|
D-|------2---------4-----2---------|--------------------------------|
A-|4-----------------------5-----4-|2-----4-|-------|-------|-------|
E-|--------------------------------|--------------------------------|


      Verse Pt. 2
G-|--------------------------------|--------------------------------|
D-|--------------------------------|------------------------4-----6-|
A-||-------|-------|-------5-----4-|2-----4-|-------|---------------|
E-|--------------------------------|--------------------------------|


      Verse pt. 2	@0:27
G-|--------------------------------|--------------------------------|
D-|4-------------2-4-----2---------|--------------------------------|
A-|------------------------4-------|4-------4-------4-----2---------|
E-|--------------------------------|------------------------0-----0-|


      Verse pt. 2
G-|--------------------------------|--------------------------------|
D-|----2---|-----------------------|------2---------4-----2-------6-|
A-|2-4-------------4-----2-------2-|4-------------------------------|
E-|------------------------0-------|--------------------------------|


      Refrain pt. 1      x2  	@0:33
G-|--------------------------------|--------------------------------|
D-|4-----2-4-----6-4-----2---------|------------------------------6-|
A-|------------------------4-------|--------------------------------|
E-|--------------------------------|--------------------------------|


      Refrain pt. 1
G-|--------------------------------|--------------------------------|
D-|4-----2-4-----2-----------------|------------------------------6-|
A-|----------------4-----2-4-------|--------------------------------|
E-|--------------------------------|--------------------------------|


      Refrain pt. 1
G-|--------------------------------|--------------------------------|
D-|4-----2-4-----2-----------------|--------------------------------|
A-|----------------4-----2-4-------|----2---------------------------|
E-|--------------------------------|----------------4-------------2-|

      Refrain pt. 1
G-|--------------------------------|--------------------------------|
D-|----------------2---------------|--------------------------------|
A-|--------2-------------4---------|------------------------------6-|
E-|4-----4-------4-----------------|--------------------------------|


      Refrain pt. 2  @1:11
G-|--------------------------------|--------------------------------|
D-|4-----2-4-----6-4-----2---------|----2-------------------------6-|
A-|------------------------4-------|----------------4---------------|
E-|--------------------------------|--------------------------------|


      Refrain pt. 2
G-|--------------------------------|--------------------------------|
D-|4-----2-4-----2-----------------|----2-------------------------6-|
A-|----------------4-----2-4-------|----------------4---------------|
E-|--------------------------------|--------------------------------|


      Refrain pt. 2
G-|--------------------------------|--------------------------------|
D-|4-----2-4-----2-----------------|--------------------------------|
A-|----------------4-----2-4-------|----2---------------------------|
E-|--------------------------------|----------------4-------------2-|


      Refrain pt. 2
G-|--------------------------------|--------------------------------|
D-|----------------2---------------|--------------------------------|
A-|--------2-------------4---------|------------------------------6-|
E-|4-----4-------4-----------------|--------------------------------|


      Refrain pt. 2
G-|--------------------------------|--------------------------------|
D-|4-----2-4-----6-4-----2---------|----2-------------------------6-|
A-|------------------------4-------|----------------4---------------|
E-|--------------------------------|--------------------------------|


      Refrain pt. 2
G-|--------------------------------|--------------------------------|
D-|4-----2-4-----2-----------------|----2-------------------------6-|
A-|----------------4-----2-4-------|----------------4---------------|
E-|--------------------------------|--------------------------------|


      Refrain pt. 2
G-|--------------------------------|--------------------------------|
D-|4-----2-4-----2-----------------|--------------------------------|
A-|----------------4-----2-4-------|----2---------------------------|
E-|--------------------------------|----------------4-------------2-|


      Refrain pt. 2
G-|--------------------------------|--------------------------------|
D-|----------------2---------------|--------2-----4-2-------2-------|
A-|--------2---------------------2-|4---------------------4---------|
E-|4-----4-------4-----------------|--------------------------------|


      Refrain pt. 2
G-|--------------------------------|--------------------------------|
D-|--------------------------------|--------------------------------|
A-|----4-----------2-------2-------|----4---|-------|-------5-----4-|
E-|----------------------4---------|--------------------------------|


      Repeat Verse pt. 1      @1:27

      Repeated Verse pt. 2 with this ending
                                    Verse pt.2
G-|                                |--------------------------------|
D-|    Repeat Verse pt.1  @1:27    |--------------------------------|
A-|                                |2-----4-|-------|-------|-------|
E-|                                |--------------------------------|

      Verse Pt. 2
G-|--------------------------------|--------------------------------|
D-|--------------------------------|------------------------4-----6-|
A-||-------|-------|-------5-----4-|2-----4-|-------|---------------|
E-|--------------------------------|--------------------------------|


      Verse pt. 2
G-|--------------------------------|--------------------------------|
D-|4-------------2-4-----2---------|--------------------------------|
A-|------------------------4-------|4-------4-------4-----2---------|
E-|--------------------------------|------------------------0-----0-|


 Verse pt. 2                                                v - only change in the verse
G-|--------------------------------|--------------------------------|
D-|----2---|-----------------------|------2---------4-----2-6-------|
A-|2-4-------------4-----2-------2-|4-------------------------------|
E-|------------------------0-------|--------------------------------|

Bridge @ 1:49


G-|--------|-------|-------4-------|----4---|-------5-------6-------|
D-|------------------------------4-|6-------------------------------|
A-|--------------------------------|--------------------------------|
E-|--------------------------------|--------------------------------|


      Bridge
G-|--------4-----------------------|--------------------------------|
D-|--------------6-4-----2-4-----6-|4-----2-------------------------|
A-|--------------------------------|--------4-----4-2-------4-------|
E-|--------------------------------|--------------------------------|


      Bridge
G-|-------------------------4----6-|6-----4-9-------9-------6-------|
D-|----------------4------6--------|--------------------------------|
A-||-------|-----------------------|--------------------------------|
E-|--------------------------------|--------------------------------|


      Bridge
G-|--------4-------|---------------|--------------------------------|
D-|------------------------6-------|4-----2-4-----6-4-----2---------|
A-|--------------------------------|------------------------4-----4-|
E-|--------------------------------|--------------------------------|


      Bridge
G-|--------------------------------|--------------------------------|
D-|--------------------------------|------------------------------2-|
A-|4-----4-4------4-4-----4-2----2-|2-----2-2-----2-2-----2-4-------|
E-|--------------------------------|--------------------------------|


Build-up/bass solo/guitar solo x23	@2:05 until 3:18

G-|--------------------------------|--------------------------------|
D-|------------------------------2-|----4---------6-2-------------2-|
A-|----4---------4-4-----2-4-------|----------------------2-4-------|
E-|--------------------------------|--------------------------------|


On the 24th time the band changes it up a bit

G-|--------------------------------|--------------------------------|
D-|------------------------------2-|----4---------6-2---------------|
A-|----4---------4-4-----2-4-------|----------------------2-4\------|
E-|--------------------------------|--------------------------------|

g
G-|--------------------------------|--------------------------------|
D-|--------------------------------|-----------------------46-----2-|
A-|----------------2---------------|2-------------------------------|
E-|----4-------------------------4-|------4-2-------0---------------|


      Interlude
G-|--------------------------------|--------------------------------|
D-|4-----2-----------------2-------|2-------------------------------|
A-|--------4-------2-----4---------|--------4-------|-------2-------|
E-|--------------------------------|--------------------------------|


      Interlude
G-|--------------------------------|--------------------------------|
D-|--------2-----------------------|--------2---------------6-----2-|
A-|----------------4---------------|2-------------4-----------------|
E-|4-------------------------------|------4-------------------------|


      Interlude
G-|--------------------------------|--------------------------------|
D-|4-----2-----------------2-------|2-------------------------------|
A-|--------4-------2-----4---------|--------4-------|-------2-------|
E-|--------------------------------|--------------------------------|

      Interlude
G-|--------------------------------|--------------------------------|
D-|--------2-----------------------|--------2-----------------------|
A-|----------------4---------------|2-------------4---------2-------|
E-|4-------------------------------|------4-------------------------|


      Interlude
G-|--------------------------------|--------------------------------|
D-|----------------2---------------|------------------------4-------|
A-|2-----------------------4-------|--------2-----------------------|
E-|----4---------------------------|----------------4---------------|


      Interlude
G-|--------------------------------|--------------------------------|
D-|------------------------2-------|--------6-----2-4-----2---------|
A-|2---------------2-------------4-|------------------------4-------|
E-|----------------------4---------|--------------------------------|


      Interlude
G-|--------------------------------|--------------------------------|
D-|--------2-------2---------------|------------------------2-------|
A-|2-----4-----------------4-------|--------2-----------------------|
E-|--------------------------------|----------------4---------------|


      Interlude
G-|--------------------------------|--------------------------------|
D-|------------------------2-------|--------6-----2-4-----2---------|
A-|4---------------2-------------4-|------------------------4-------|
E-|----------------------4---------|--------------------------------|

      Interlude
G-|--------------------------------|--------------------------------|
D-|--------2-------2---------------|------------------------2-------|
A-|2-----4-----------------4-------|--------2-----------------------|
E-|--------------------------------|----------------4---------------|


      Interlude
G-|--------------------------------|--------------------------------|
D-|------------------------2-------|--------------------------------|
A-|4---------------2-------------4-|--------2-----------------------|
E-|----------------------4---------|--------------------4-----------|

      Interlude
G-|--------------------------------|--------------------------------|
D-|2-------------------------------|--------2-----------------------|
A-|--------4---------------2-------|----------------4---------------|
E-|--------------------------------|4-------------------------------|


      Interlude
G-|--------------------------------|
D-|--------2-----------------------|
A-|2-------------4---------2-------|
E-|------4-------------------------|


   @3:57   Breakdown
G-|--------------------------------|--------------------------------|
D-|--------------------------------|--------------------------------|
A-|2---2---------------------------|--------5---------------2-------|
E-|--------------4-2-----3-4-------|--------------------------------|


      Breakdown
G-|--------------------------------|--------------------------------|
D-|--------------------------------|--------------------------------|
A-|2---2---------------------------|------------------------2-------|
E-|--------------4-2-----3-4-------|--------------------------------|


      Breakdown
G-|--------------------------------|--------------------------------|
D-|--------------------------------|--------------------------------|
A-|2---2---------------------------|--------5---------------2-------|
E-|--------------4-2-----3-4-------|--------------------------------|


      Breakdown
G-|--------------------------------|--------------------------------|
D-|--------------------------------|------------------------------6-|
A-|2---2---------------------------|--------------------------------|
E-|--------------4-2-----3-4-------|--------------------------------|


      Refrain pt. 1      x2  	@4:10
G-|--------------------------------|--------------------------------|
D-|4-----2-4-----6-4-----2---------|------------------------------6-|
A-|------------------------4-------|--------------------------------|
E-|--------------------------------|--------------------------------|


      Refrain pt. 1
G-|--------------------------------|--------------------------------|
D-|4-----2-4-----2-----------------|------------------------------6-|
A-|----------------4-----2-4-------|--------------------------------|
E-|--------------------------------|--------------------------------|


      Refrain pt. 1
G-|--------------------------------|--------------------------------|
D-|4-----2-4-----2-----------------|--------------------------------|
A-|----------------4-----2-4-------|----2---------------------------|
E-|--------------------------------|----------------4-------------2-|

      Refrain pt. 1
                                          Fill------------------------|
G-|--------------------------------|----------------------------------|
D-|----------------2---------------|----------------------------------|
A-|--------2-------------4---------|--------2---------------------6---|
E-|4-----4-------4-----------------|--------------------4-------------|


      Refrain pt. 2
G-|--------------------------------|--------------------------------|
D-|4-----2-4-----6-4-----2---------|----2-------------------------6-|
A-|------------------------4-------|----------------4---------------|
E-|--------------------------------|--------------------------------|


      Refrain pt. 2
G-|--------------------------------|--------------------------------|
D-|4-----2-4-----2-----------------|----2-------------------------6-|
A-|----------------4-----2-4-------|----------------4---------------|
E-|--------------------------------|--------------------------------|


      Refrain pt. 2
G-|--------------------------------|--------------------------------|
D-|4-----2-4-----2-----------------|--------------------------------|
A-|----------------4-----2-4-------|----2---------------------------|
E-|--------------------------------|----------------4-------------2-|


      Refrain pt. 2
G-|--------------------------------|--------------------------------|
D-|----------------2---------------|--------------------------------|
A-|--------2-------------4---------|------------------------------6-|
E-|4-----4-------4-----------------|--------------------------------|


      Refrain pt. 2
G-|--------------------------------|--------------------------------|
D-|4-----2-4-----6-4-----2---------|----2-------------------------6-|
A-|------------------------4-------|----------------4---------------|
E-|--------------------------------|--------------------------------|


      Refrain pt. 2
G-|--------------------------------|--------------------------------|
D-|4-----2-4-----2-----------------|----2-------------------------6-|
A-|----------------4-----2-4-------|----------------4---------------|
E-|--------------------------------|--------------------------------|


      Refrain pt. 2
G-|--------------------------------|--------------------------------|
D-|4-----2-4-----2-----------------|--------------------------------|
A-|----------------4-----2-4-------|----2---------------------------|
E-|--------------------------------|----------------4-------------2-|


      Refrain pt. 2
G-|--------------------------------|--------------------------------|
D-|----------------2---------------|--------2-----4-2-------2-------|
A-|--------2---------------------2-|4---------------------4---------|
E-|4-----4-------4-----------------|--------------------------------|


      Refrain pt. 2
G-|--------------------------------|--------------------------------|
D-|--------------------------------|--------------------------------|
A-|----4-----------2-------2-------|----4---|-------|-------5-----4-|
E-|----------------------4---------|--------------------------------|


      Verse pt. 1
G-|--------------------------------|--------------------------------|
D-|--------------------------------|--------------------------------|
A-|2-----4-|-------|-------|-------||-------|-------|-------5-----4-|
E-|--------------------------------|--------------------------------|


      Verse pt.1	@5:06
G-|--------------------------------|--------------------------------|
D-|------------------------4-----6-|4-------------2-4-----2---------|
A-|2-----4-|-------|---------------|------------------------4-------|
E-|--------------------------------|--------------------------------|


      Verse Pt. 1
G-|--------------------------------|--------------------------------|
D-|--------------------------------|----2---|-----------------------|
A-|4-------4-------4-----2---------|2-4-------------4-----2-------2-|
E-|------------------------0-----0-|------------------------0-------|


 Verse pt. 1                        Verse Pt. 2
G-|--------------------------------|--------------------------------|
D-|------2---------4-----2---------|--------------------------------|
A-|4-----------------------5-----4-|2-----4-|-------|-------|-------|
E-|--------------------------------|--------------------------------|


      Verse Pt. 2
G-|--------------------------------|--------------------------------|
D-|--------------------------------|------------------------4-----6-|
A-||-------|-------|-------5-----4-|2-----4-|-------|---------------|
E-|--------------------------------|--------------------------------|


      Verse pt. 2
G-|--------------------------------|--------------------------------|
D-|4-------------2-4-----2---------|--------------------------------|
A-|------------------------4-------|4-------4-------4-----2---------|
E-|--------------------------------|------------------------0-----0-|


      Verse pt. 2                                           v - change to lead into outro
G-|--------------------------------|--------------------------------|
D-|----2---|-----------------------|------2---------4-----2---------|
A-|2-4-------------4-----2-------2-|4-------------------------------|
E-|------------------------0-------|------------------------4-------|

      Outro @5:25
G-|--------------------------------|--------------------------------|
D-|--------------------------------|--------------------------------|
A-|------------------------2-------|------2---------3--------4------|
E-|------------------------------2-|4-------------------------------|


SOOOO
Not Including fills, it goes like this:

Intro
Verse pt.1
Verse pt.2
Refrain pt.1  x2
Refrain pt.2
Verse pt.1
Verse pt.2
Bridge
Build up/bass solo/guitar solo x24
Interlude
Breakdown
Refrain pt.1  x2
Refrain pt.2
Verse pt.1
Verse pt.2
Outro

Once again, corrections or other tab requests, send it in to christianfournet@hotmail.com
Добавлено: 24.05.2012
Другие материалы по этой песне:
  • Аккорды и текст

Страница создана 25.02.2012
http://primanota.ru/clutch/muchas-veces-chords.htm
Привет, Гость.
Предлагаем пройти революционный курс по гитаре.
Подарок от PrimaNota.Ru, забирай!