PrimaNota.ru - самый крупный в мире бесплатный архив песенных текстов, аккордов, табулатур и нот


Clutch - Milk Of Human Kindness - аккорды и текст, таба, бас-таба, видео

Регистрация Запомнить меня
Войти через:  Facebook Google Twitter Vk Yandex Mail.ru

Clutch - Milk Of Human Kindness - аккорды и текст, таба, бас-таба, видео

Печатать
Просмотров: 211
Авторы: Clutch

Milk Of Human Kindness
Clutch
		   Milk of Human Kindness          by Clutch
                                from the album "Transnational Speedway League"
                                words and music by Tim Sult, Dan Maines,
                                        Neil Fallon and Jean-Paul Gaster
                                tabbed by Tom Mallon

Riff 1
E ----------------------------------------------------
B ----------------------------------------------------
G ----------------------------------------------------
D --8\7-7---8-7---8-7---------------------------------
A --8\7-7---8-7---8-7---------------------------------
E --6\5-5---6-5---6-5---------------------------------

Riff 2
E ----------------------------------------------------
B ----------------------------------------------------
G ----------------------------------------------------
D --8\7-7---8-7---8-7---------------------------------
A --8\7-7---8-7---8-7---------------------------------
E --6\5-5---6-5---6-5---3-0-3-0-----------------------

Riff 3 (tremolo-pick these)
E ----------------------------------------------------
B --12---------------------10-------------------------
G --11--/--/--/--/--/--/---9----/---/---/---/---/-----
D -----/--/--/--/--/--/--------/---/---/---/---/------
A ----------------------------------------------------
E ----------------------------------------------------

Riff 4
  PM. . . . . . . . . . . . . . .
E ----------------------------------------------------
B ----------------------------------------------------
G ----------------------------------------------------
D ----------------------------------------------------
A ----------------------------------------------------
E --6-5-5---6-5---6-5---3-0-3-0-----------------------

Riff 5 (back in mix, played with Riff 4)
E ----------------------------------------------------
B ----------------------------------------------------
G --10----9----10----9----10----9---------------------
D ----------------------------------------------------
A ----------------------------------------------------
E ----------------------------------------------------

Riff 6
              *these are harmonics*
E ----------------------------------------------------
B ----------------------------------------------------
G ----------------------------------------------------
D ----5-/-7--- 3> 3> 3> 3>----------------------------
A ----5-/-7--- 3> 3> 3> 3>----------------------------
E -0--3-/-5--- 3> 3> 3> 3>----------------------------

Riff 7
E ----------------------------------------------------
B ----------------------------------------------------
G ----------------------------------------------------
D ----5-/-7--7-7-7-7----------------------------------
A ----5-/-7--7-7-7-7----------------------------------
E -0--3-/-5--5-5-5-5----------------------------------     
Добавлено: 13.10.2013
Другие материалы по этой песне:
  • Аккорды и текст

Страница создана 02.03.2012
http://primanota.ru/clutch/milk-of-human-kindness-chords.htm
Привет, Гость.
Предлагаем пройти революционный курс по гитаре.
Подарок от PrimaNota.Ru, забирай!