PrimaNota.ru - самый крупный в мире бесплатный архив песенных текстов, аккордов, табулатур и нот


Clutch - Mice And Gods - текст песни, таба, бас-таба, видео

Регистрация Запомнить меня
Войти через:  Facebook Google Twitter Vk Yandex Mail.ru

Clutch - Mice And Gods - текст песни, таба, бас-таба, видео

Печатать
Просмотров: 140
Авторы: Clutch

-------------------------------------------------------------------------------
                         MICE AND GODS - Clutch
-------------------------------------------------------------------------------

Tabbed by: Tyler Greig

Email: gtheleadguitarist@hotmail.com


| /  slide up
| \  slide down
| h  hammer-on
| p  pull-off
| ~  vibrato
| +  harmonic
| x  Mute note


Tuning: half step down

This should be more than enough to get you all going, hope you like :) Not a difficult song, surprised
there haven't been any tabs for it yet.


Verse
e|---------------------------|
B|---------------------------|
G|-9~------------------------|
D|-9~------------------------|
A|-7~-----5--------5---------|
E|-----------5--7-----5---3--|x4


Verse pt 2 ("Fire it up")
e|------------------------------------------------------------|
B|------------------------------------------------------------|
G|------------------------------------------------------------|
D|-----------------------5---------------------------7br-5----|
A|-7-5-7-5-7-5-7-5-7-5-7---7-5---7-5-7-5-7-5-7-5-7-5------7-5-|
E|------------------------------------------------------------|x2

Pre-chorus ("Engineer the future now")
e|------------------------|
B|------------------------|
G|-9~---12~---7~--7-7/9-9-|
D|-9~---12~---7~--7-7/9-9-|
A|-7~---10~---5~--5-5/7-7-|
E|------------------------|x4

Chorus ("Mice and Gods")
e|------------------------|
B|------------------------|
G|-9~---12~---7~--7-7/9-9-|
D|-9~---12~---7~--7-7/9-9-|
A|-7~---10~---5~--5-5/7-7-|
E|-7~---10~---5~--5-5/7-7-|x4


Verse
Verse pt 2
Pre-chorus
Chorus


Solo (wah? leslie speaker?)
e|-------------------------------------------------------------|
B|-------------------------------------------------------------|
G|--9~---12~--7~--9-7-9~----\------9~---12~--7~--9-7-9br~------|
D|----------------------------7-5--------------------------7-5-|
A|-------------------------------------------------------------|
E|-------------------------------------------------------------|

Guitar behind organ solo
e|---------------------------------------------------------------|
B|---------------------------------------------------------------|
G|-------------------------------12~-12~-12~-12~-----------------|
D|---------------------------------------------------------------|
A|---------------10~-10~-10~-10~-----------------10~-10~-10~-10~-|
E|--3~-3~-3~-3~--------------------------------------------------|

Solo part 2
e|--------------------------------|
B|--------------------------------|
G|--9~---12~--7~--9-7-9~----\-----|
D|----------------------------7-5-|
A|--------------------------------|
E|--------------------------------|

Verse
Verse pt 2
Pre-chorus
Chorus

End with
e|----------|
B|----------|
G|-12---7~--|
D|-12---7~--|
A|-10---5~--|
E|-10---5~--|

And thats her :P Rock on

============================================================================
Добавлено: 26.06.2012
Другие материалы по этой песне:
  • Аккорды и текст

Страница создана 15.06.2012
http://primanota.ru/clutch/mice-and-gods-chords.htm
Привет, Гость.
Предлагаем пройти революционный курс по гитаре.
Подарок от PrimaNota.Ru, забирай!