PrimaNota.ru - самый крупный в мире бесплатный архив песенных текстов, аккордов, табулатур и нот


Clutch - La curandera - таба, видео

Регистрация Запомнить меня
Войти через:  Facebook Google Twitter Vk Yandex Mail.ru

Clutch - La curandera - таба, видео

Печатать
Просмотров: 138


Song: (Notes From The Trial oF) La Curandera
Artist: Clutch
Album: Blast Tyrant
Tabbed by: Alan Davies
Email: BurningAntichrist666@hotmail.com


Tuning: Standard (EADGBE)

Key:
| () Let Ring
|   slide down
| h  hammer-on




Intro/Chorus:
e|---------------------------------------------------------------------------|
B|---------------------------------------------------------------------------|
G|---------------------------------------------------------------------------|
D|----9999999912--7777777772---9999999912--7777777772------------------------| X 4
A|----9999999912--7777777772---9999999912--7777777772------------------------|
E|----7777777710--5555555550---7777777710--5555555550------------------------|


Verse:
e|---------------------------------------------------------------------------|
B|---------------------------------------------------------------------------|
G|----5-(5)-(5)-(5)----------------------------------------------------------|
D|----5-(5)-(5)-(5)---5-(5)-(5)-(5)------------------------------------7-----| X 2
A|----7-(7)-(7)-(7)---5-(5)-(5)-(5)-------------5-5------------------5-5-----|
E|--------------------7-(7)-(7)-(7)---7-5-7-5-7-----7-5-0--5-7-5-7-5-----7---|


Pre Chorus:
e|----------------------------------------|
B|----------------------------------------|
G|----------------------------------------| X 1
D|----2-(2)-(2)-(2)---5-(5)-(5)-(5)-------|
A|----2-(2)-(2)-(2)---5-(5)-(5)-(5)-------|
E|----0-(0)-(0)-(0)---7-(7)-(7)-(7)-------|


Play intro/Chorus X 4


Verse 2
e|-------------------------------------------------------------------------------|
B|-------------------------------------------------------------------------------|
G|-------------------------------------------------------------------------------|
D|-----------------------------------7---------------------------------------5---| X 1
A|------------5-5------------------5-5----------------3-3------------------3-3---|
E|--7-5-7-5-7-----7-5-0--5-7-5-7-5-----7----5-3-5-3-5-----3-5-0--3-5-3-5-3-----5-|


e|---------------------------------------------------------------------------|
B|---------------------------------------------------------------------------|
G|----5-(5)-(5)-(5)----------------------------------------------------------|
D|----5-(5)-(5)-(5)---5-(5)-(5)-(5)------------------------------------7-----| X 1
A|----7-(7)-(7)-(7)---5-(5)-(5)-(5)-------------5-5------------------5-5-----|
E|--------------------7-(7)-(7)-(7)---7-5-7-5-7-----7-5-0--5-7-5-7-5-----7---|



Pre Chorus:
e|----------------------------------------|
B|----------------------------------------|
G|----------------------------------------|
D|----2-(2)-(2)-(2)---5-(5)-(5)-(5)-------| X 1
A|----2-(2)-(2)-(2)---5-(5)-(5)-(5)-------|
E|----0-(0)-(0)-(0)---7-(7)-(7)-(7)-------|


Play Intro/Chorus X 4 and end on

e|---------------------------------------------------------------------------|
B|---------------------------------------------------------------------------|
G|---------------------------------------------------------------------------|
D|----7-(7)-(7)-(7)-(7)-(7)-(7)-(7)------------------------------------------|
A|----7-(7)-(7)-(7)-(7)-(7)-(7)-(7)------------------------------------------|
E|----9-(9)-(9)-(9)-(9)-(9)-(9)-(9)------------------------------------------|


Interlude:
e|---------------------------------------------------------------------------|
B|---------------------------------------------------------------------------|
G|---------------------------------------------------------------------------|
D|---------------------------------------------------------------------------| X 8
A|----2-0-2-0-2-0-2-0-555h0--------------------------------------------------|
E|---------------------------------------------------------------------------|
Continue this through the Solo



Solo: ------- i havent quite figured this bit
out yet (ill try to update it in the future)


Outro:
e|---------------------------------------------------------------------------|
B|---------------------------------------------------------------------------|
G|---------------------------------------------------------------------------|
D|----9-7-9-7-9--9-7-9-7-9--9-7-9-7-9--9-7-9-7-9-----------------------------|X 1
A|----9-7-9-7-9--9-7-9-7-9--9-7-9-7-9--9-7-9-7-9-----------------------------|
E|----7-5-7-5-7--7-5-7-5-7--7-5-7-5-7--7-5-7-5-7-----------------------------|


e|---------------------------------------------------------------------------|
B|---------------------------------------------------------------------------|
G|---------------------------------------------------------------------------|
D|----9-7-9-7-9-7-1212127--9-7-9-7-9-7-1212127-----------------------------| X 1
A|----9-7-9-7-9-7-1212127--9-7-9-7-9-7-1212127-----------------------------|
E|----7-5-7-5-7-5-1010105--7-5-7-5-7-5-1010105-----------------------------|


e|--------------------------------------------------------------------------------------|
B|-12121212121212121212121212121212-----------12121212121212121212121212121212----------|
G|-11111111111111111111111111111111-----------11111111111111111111111111111111----------|
D|----------------------------------1212127-----------------------------------1212127-| X 2
A|----------------------------------1212127-----------------------------------1212127-|
E|----------------------------------1010105-----------------------------------1010105-|



e|---------------------------------------------------------------------------|
B|---------------------------------------------------------------------------|
G|---------------------------------------------------------------------------|
D|----9-7-9-7-9-7-1212127--9-7-9-7-9-7-1212127-----------------------------| X 1
A|----9-7-9-7-9-7-1212127--9-7-9-7-9-7-1212127-----------------------------|
E|----7-5-7-5-7-5-1010105--7-5-7-5-7-5-1010105-----------------------------|



e|---------------------------------------------------------------------------|
B|---------------------------------------------------------------------------|
G|---------------------------------------------------------------------------|
D|----9-7-9-7-9--------------------------------------------------------------|
A|----9-7-9-7-9--------------------------------------------------------------|
E|----7-5-7-5-7--------------------------------------------------------------|
	     ( ) ----------------------- let ring for as long as possible

ok well thats it.. its an awesome song.
sorry the solos missing its my first tab so there u go anyway enjoy..
ill update it in the future


Добавлено: 07.09.2013
Другие материалы по этой песне:
  • Аккорды и текст

Страница создана 07.09.2013
http://primanota.ru/clutch/la-curandera-chords.htm
Привет, Гость.
Предлагаем пройти революционный курс по гитаре.
Подарок от PrimaNota.Ru, забирай!